Enviado por: Anonimo
Agrandar Letra
Reducir Letra
Imprimir



Las manos de filippi, Latino

INTRO:
G ----------------------------------------
D ----------------------------------------
A ----------------------------------------
E -5-6-5-3-5-3-0---0000-6-5-3-0-----------

VERSO:
Soy latino, llandino...... 
G ---------------------------------------------
D ---------------------------------------------
A ---------------------------------------------
E -0000-6-5-3-0---0000-6-5-3-0---5-6-5-3-5-3-0-

Soy latino americano....
G -----------------------------------------------
D -----------------------------------------------
A -----------------------------------------------
E -0000-6-5-3-0---0000-6-5-3-0---5-6-5-3-5-3-0---

Odio a los yanquis.......
G -----------------------------------------------
D -----------------------------------------------
A -----------------------------------------------
E -0000-6-5-3-0---0000-6-5-3-0---0000-6-5-3-0----

Soy una raza jodida......

En esta parte no escucho muy claro el bajo 
asi que de seguro tiene algun error.
G --------------------------------------------
D -----8-8-------7-7-------6-6----3-----------
A -7--7-7-7--6--6-6-6--5--5-5-5--4-4----------
E -----------------------------------000000---

Fuente original: LaCuerda
Colaborador original: Mauricio Salvo [[email protected]]
Aviso: Este fichero es trabajo propio de su transcriptor y representa su interpretación personal de la canción. El material contenido en esta página es para exclusivo uso privado, por lo que se prohibe su reproducción o retransmisión, así como su uso para fines comerciales.

Califica esta canción


Comentarios en Facebook