Enviado por:
Anonimo








Mana, Te Llore Un Rio

Intro:
E-----4-----7------4------------4-----7-7---4----
B---5---5------5-----5--------5---5------------7-
G-4-------4------4----------4-------4-----4------
D------------------------------------------------
A------------------------------------------------
E------------------------------------------------

E-----4-----7------4------------4-----7-7---4----
B---5---5------5-----5--------5---5------------7-
G-4-------4------4----------4-------4-----4------
D------------------------------------------------
A------------------------------------------------
E------------------------------------------------

E-----4-----7------4----------4-----4/7-4---------
B---5---5------5-----5------5---5---5/9-5---5-7-5-
G-4-------4------4--------4-------4-------4---6-4-
D-------------------------------------------------
A-------------------------------------------------
E-------------------------------------------------

VERSO:
E                      B
Yo aqui llorandote un rio
                 C#m
mandandome al olvido
                B
que cosa mas injusta amor
E                      B
Fuiste matando mis pasiones
                  C#m
tachando mis canciones
                A
me tenias pisoteado
               B
estaba desahuciado
                   C#m          B
No es justo, no bebe Oh oh e oh

PRE CORO:
B A# A                      B
     Pero este mundo ya giro
                        C#m            B
     y ahora te toco perder  Oh oh e oh

CORO:  (Riff del Intro de fondo)
E   C#m            A          B
Bebe te llore todo un rio  (bebe bebe)
E   C#m            A          B
Bebe te llore a reventar  (bebe bebe)
E           C#m             A      B
Oh no no nooo, no tienes corazon  (noo)
              E
No te vuelvo a amar
 C#m           A
Te llore todo un rio
 B             E
ahora llorame un mar

Riff:
E------------------------------------
B--------------------------12--10--9-
G----------------8--9--11------------
D---------9--11----------------------
A-11--12-----------------------------
E------------------------------------

VERSO:
Ya no me busques ya es muy tarde
ya tengo otro amor
una chula sirena que nada en mi piel
Yo te perdono no hay rencores
solo los dolores
Mi alma esta arañada
llore en suelo mojado
No es justo no bebe (oh oh e oh)

PRE CORO

CORO

SOLO:
E---------------------
B---------------------
G----------------8--9-
D---------9--11-------
A-11--12--------------
E---------------------

E-/12--12--12--11--11--11------9--9--9--7--7--7--7/12--11-
B-/14--14--14--12--12--12-----10-10-10--9--9--9--9/14--12-
G---------------------------------------------------------
D---------------------------------------------------------
A---------------------------------------------------------
E---------------------------------------------------------

E---------------------------------------
B----------------------12--10--9--------
G----------------8--9-------------9--11-
D---------9--11-------------------------
A-11--12--------------------------------
E---------------------------------------
      
E------------------------------9--12--11-
B-9-9-9-9-9--10-10-10--10--12------------
G----------------------------------------
D----------------------------------------
A----------------------------------------
E----------------------------------------


(Riff del Intro de fondo)
E                 C#m           A              B
Verdad que un rio te llore, verdad que no te vuelvo a amar
E            C#m              A     B
oh no no no, no te vuelvo a amar (uh uh uh)

E                 C#m           A                 B
Verdad que un rio te llore, verdad que no te vuelvo a amar
E                C#m              A    B
oh no no noo no, pierdete en tu mar (uh uh uh)

E                 C#m           A                 B
Verdad que un rio te llore, verdad que no te vuelvo a amar
E                   C#m   A     B
llorame, llorame, llorame    (uh uh uh)

Fuente original: LaCuerda
Colaborador original: Pedro Quijada [Hermosillo, Sonora, México]
Aviso: Este fichero es trabajo propio de su transcriptor y representa su interpretación personal de la canción. El material contenido en esta página es para exclusivo uso privado, por lo que se prohibe su reproducción o retransmisión, así como su uso para fines comerciales.

Califica esta canción


Comentarios en Facebook