Acordes y tablaturas para guitarra

Acordes y Tablaturas
Usuario: Password:

Buscar:
Acordes y Tablaturas >> Letra M >> Acordes de Mana >> Eres mi religion
Tablatura de Eres mi religion, Mana

Eres mi religion

Mana






Intro : 

 Guitar 1 :  Distortion Muy Bajo       
  
e|----------------------------------------------|
B|----------------------------4-----------------|
G|-----9-------9-------6------------4-----------|
D|---9-------9-------6-----6-----6--------------|
A|-7-------6-------4----------------------------|
E|----------------------------------------------|

   Guitar 2 : Acustica
   
e|-----------------------|
B|-7-------------4-------|
G|-9------9------6-------|
D|-9------9------6-------|
A|-7------6------4-------|
E|-x-------------x-------|


 VERSO
 
 Guitarra 1
    F#m       B          E            E
e|-------2--------2----------------------------------|
B|---------------------------------------------------|
G|-----2--------2----------1----2---------1----2-----|
D|--4--------4-----------2----2---------2----2-------|
A|--4--------2--------2--------------2---------------|
E|--2-----------------0--------------0---------------|

 Guitarra 2 : Acustica ( Esta guitarra solo toco los circulos de estos acordes.)

 F#m - B - E  
 
Segunda Parte (a 1:20) Apareciste con tu luz......

 Guitarra 1

  Escucha la cancion para eschuchar el ritmo.
e|----------------------------------------------|
B|--10-x-x-10-x--9-x-9----x-x-x-x-x-x-x---------|
G|--9--x-x-9--x--9-x-9----9-x-9-x-x-8-x---------|
D|--7--x-x-7--x--7-x-7----9-x-9-x-x-9-x---------|
A|----------------------------------------------|
E|----------------------------------------------|

 Guitarra 2 sigue tocando (VERSO)


 Pre-Coro

 Guitarra 1

e|-----7~---------9~-------7~------6~-------5~-------7~---|
B|--------------------------------------------------------|
G|-4/6--------4/6------4/6-----4/6------4/6-----4/6-------|
D|--------------------------------------------------------|
A|--------------------------------------------------------|
E|--------------------------------------------------------|

 Guitarra 2
 EScucha para el ritmo.
e|--------------------------------------------|
B|--------------------------------------------|
G|--8--6--8-------------8-8--8h99-8-8---------|
D|--9--6--9--8--7-7-7---9-9--9--7-9-9---------|
A|--9--4--9--8--7-7-7---9-9--9--9-9-9---------|
E|--7--x--7--6--5-5-5---7-7--7--7-7-7---------|

 Coro

e|-----------------------------------------------------------------------|
B|---------------------------------------------------------------4-4-4---|
G|-----9-------9-------6----4-----4------------------------------4-4-4---|
D|---9-------9-------6------4--4-----------7-7-x-7-6-4-4-4-x-4---4-4-4---|
A|-7-------6-------4--------2--------------7-7-x-7-6-4-4-4-x-4---2-2-2---|
E|-----------------------------------------5-5-x-5-4-2-2-2-x-2-----------|


 Tocar 1 (a 3:45)
e|------------------------------------|
B|--13------13------------------------|
G|--12p14---12p14p12--11--9~-~--------|
D|------------------------------------|
A|------------------------------------|
E|------------------------------------|

 Tocar 2 (at 3:53)
e|------------------------------------|
B|-------7------9--7--5~--------------|
G|--------------9--6--4~--------------|
D|--4/6-----6-------------------------|
A|------------------------------------|
E|------------------------------------|

 OUTRO
 Escucha el cancion para el ritmo.
e|----------------------------------------------|
B|----------------------------------------------|
G|--9-9-x-9-9-9----6-6-6---8-8-8----------------|
D|--9-9-x-9-9-9----6-6-6---9-9-9----------------|
A|--7-7-x-7-6-6----4-4-4---9-9-9----------------|
E|-------------------------7-7-7----------------|

e|---7-7-x-----------------|
B|---7-7-x--10-10-9-9------|
G|----------9--9--9-9------|
D|-------------------------|
A|-------------------------|
E|-------------------------|

ESto es todo lo que pude sacar, espero que les guste, commentarios como siempre acceptados

Fuente original: LaCuerda
Colaborador original: Luis Estrada [[email protected]]

Que te parecio? Calificalo con estrellas!!

Rating: 5.2/10 (200 votos)

Este fichero es trabajo propio de su transcriptor y representa su interpretación personal de la canción. El material contenido en esta página es para exclusivo uso privado, por lo que se prohibe su reproducción o retransmisión, así como su uso para fines comerciales.


Deja tus comentarios:

Letras de Mana
Letras de canciones | Musica Independiente