Acordes y tablaturas para guitarra

Acordes y Tablaturas
Usuario: Password:

Buscar:
Acordes y Tablaturas >> Letra M >> Acordes de Mana >> En el muelle de san blas
Tablatura de En el muelle de san blas, Mana

En el muelle de san blas

Mana






Verso

e|-----3---7---3---|---------5-------|---------5-------|---------3---2---|
b|---5---5---5---5-|-----5-------5---|-----5-------5---|-----3---------3-|
g|-----------------|---6---6---6---6-|---7---7---7---7-|---4---4---4-----|
d|-----------------|-----------------|-0---------------|-----------------|
a|-----------------|-0---------------|-----------------|-----------------|
e|-0---------------|-----------------|-----------------|-3---------------|
Repetir 12 veces

Coro 
e|---------0-------|---------0-------|---------0-------|---------0-------|
b|-----3-------3---|-----2-------3---|-----3-------3---|-----2-------1---|
g|---2---2---2---2-|---2---2---2---2-|---2---2---2---2-|---2---2---2---2-|
d|-0---------------|-----------------|-----------------|-----------------|
a|-----------------|-4---------------|-2---------------|-4---------------|
e|-----------------|-----------------|-----------------|-----------------|

e|---------0-------|---------0-------|---------3-------|-------------0---|
b|-----3-------3---|-----2-------1---|-----3-------3---|-----3---2-------|
g|---2---2---2---2-|---2---2---2---2-|---0---0---0---0-|---2---2---2-----|
d|-0---------------|-----------------|-----------------|-----------------|
a|-----------------|-4---------------|-----------------|-0---------------|
e|-----------------|-----------------|-3---------------|-----------------|

e|-2---------------|
b|-3---------------|
g|-2---------------| Se espera dos compases en silencio y se toca el verso.
d|-0---------------| Nota: Compás es esto: e|-----------------|enesta canción dura 4 tiempos
a|-----------------|                       b|-----------------|(no me digas que no sabes
e|-----------------|                       g|-----------------| que es un tiempo)
                                           d|-----------------|
                                           a|-----------------|
					   e|-----------------|

e|-----3---7---3---|---------5-------|---------5-------|---------3---2---|
b|---5---5---5---5-|-----5-------5---|-----5-------5---|-----3---------3-|
g|-----------------|---6---6---6---6-|---7---7---7---7-|---4---4---4-----|
d|-----------------|-----------------|-0---------------|-----------------|
a|-----------------|-0---------------|-----------------|-----------------|
e|-0---------------|-----------------|-----------------|-3---------------|
Se repite  5 veces.

Coro 
e|---------0-------|---------0-------|---------0-------|---------0-------|
b|-----3-------3---|-----2-------3---|-----3-------3---|-----2-------1---|
g|---2---2---2---2-|---2---2---2---2-|---2---2---2---2-|---2---2---2---2-|
d|-0---------------|-----------------|-----------------|-----------------|
a|-----------------|-4---------------|-2---------------|-4---------------|
e|-----------------|-----------------|-----------------|-----------------|

e|---------0-------|---------0-------|---------3-------|-------------0---|
b|-----3-------3---|-----2-------1---|-----3-------3---|-----3---2-------|
g|---2---2---2---2-|---2---2---2---2-|---0---0---0---0-|---2---2---2-----|
d|-0---------------|-----------------|-----------------|-----------------|
a|-----------------|-4---------------|-----------------|-0---------------|
e|-----------------|-----------------|-3---------------|-----------------|

Después esto.

e|-----------2-----|-----------2-----|---3---2---0-----|---3---2---0-----|
b|---3---2-----2---|---3---2-----1---|-0---0---0---3---|-0---0---0-0-3---|
g|-----------------|-----------------|-------------4---|-------------4---|
d|-4---3---3-------|-4---3---3-------|-----------------|-----------------|
a|-----------------|-----------------|-----------------|-----------------|
e|-----------------|-----------------|-----------------|-----------------|

e|-----------2-----|-----------2-----|---0-------------|-0-0-0-0-0-0-0---|
b|---3---2---3-2---|---3---2---3-1---|-------3---3-----|-3-3-3-3-3-3-3---|
g|-----------------|-----------------|-2---2---2-5-2---|-----2-2-2-2-2---|
d|-4---3---3-------|-4---3---3-3-----|-----------------|-----------------|
a|-----------------|-----------------|-----------------|-----------------|
e|-----------------|-----------------|-----------------|-----------------|

Coro

e|---------0-------|---------0-------|---------0-------|---------0-------|
b|-----3-------3---|-----2-------3---|-----3-------3---|-----2-------1---|
g|---2---2---2---2-|---2---2---2---2-|---2---2---2---2-|---2---2---2---2-|
d|-0---------------|-----------------|-----------------|-----------------|
a|-----------------|-4---------------|-2---------------|-4---------------|
e|-----------------|-----------------|-----------------|-----------------|

e|---------0-------|---------0-------|---------3-------|-------------0---|
b|-----3-------3---|-----2-------1---|-----3-------3---|-----3---2-------|
g|---2---2---2---2-|---2---2---2---2-|---0---0---0---0-|---2---2---2-----|
d|-0---------------|-----------------|-----------------|-----------------|
a|-----------------|-4---------------|-----------------|-0---------------|
e|-----------------|-----------------|-3---------------|-----------------|

e|---------0-------|---------0-------|---------0-------|---------0-------|
b|-----3-------3---|-----2-------3---|-----3-------3---|-----2-------1---|
g|---2---2---2---2-|---2---2---2---2-|---2---2---2---2-|---2---2---2---2-|
d|-0---------------|-----------------|-----------------|-----------------|
a|-----------------|-4---------------|-2---------------|-4---------------|
e|-----------------|-----------------|-----------------|-----------------|

e|---------0-------|---------0-------|---------3-------|-------------0---|
b|-----3-------3---|-----2-------1---|-----3-------3---|-----3---2-------|
g|---2---2---2---2-|---2---2---2---2-|---0---0---0---0-|---2---2---2-----|
d|-0---------------|-----------------|-----------------|-----------------|
a|-----------------|-4---------------|-----------------|-0---------------|
e|-----------------|-----------------|-3---------------|-----------------|

e|-3--------------|-2------------|
b|-3---------------|-3------------|
g|-2---------------|-2------------|
d|-0---------------|-0------------|
a|-----------------|--------------|
e|-----------------|--------------|

Después hacer esto

e|-----------------|-----------------|
b|-3-3---3---3---3-|-3-3---3---3---3-|
g|-2-2---2---2---2-|-2-2---2---2---2-|
d|-----4---3---3---|-----4---3---3---|
a|-----------------|-----------------|
e|-----------------|-----------------|

e|-----------------|-----------------|
b|-0-0---0---0---0-|-0-0---0---0---0-|
g|-0-0---0---0---0-|-0-0---0---0---0-|
d|-----0---0---0---|-----0---0---0---|
a|-----------------|-----------------|
e|-----------------|-----------------|

e|-----------------|-----------------|
b|-3-3---3---3---3-|-3-3---3---3---3-|
g|-2-2---2---2---2-|-2-2---2---2---2-|
d|-----4---3---3---|-----4---3---3---|
a|-----------------|-----------------|
e|-----------------|-----------------|

e|-----------------|---------------|
b|-0-0---0---0---0-|-0-0-0-0-0-2-1-|
g|-0-0---0---0---0-|-0-0-0-0-0-2-2-|
d|-----0---0---0---|---------------|
a|-----------------|---------------|
e|-----------------|---------------|

e|--9---8----10----10----10----|--9---8----8-----10----10----10-|
b|-10---10---10----10----10----|-10---10---10----10----10----10-|
g|----9----9----11----10----10-|----9----9----11----10----10----|
d|-----------------------------|--------------------------------|
a|-----------------------------|--------------------------------|
e|-----------------------------|--------------------------------|

e|--7---7---7---7---7---7--|--7---7---7---7---7---7--|
b|--8---8---8---8---8---8--|--8---8---8---8---8---8--|
g|----7---7---7---7---7----|----7---7---7---7---7----|
d|-------------------------|-------------------------|
a|-------------------------|-------------------------|
e|-------------------------|-------------------------|

e|--9---8----8-----10----10----10-|--9---8----8-----10----10----10-|
b|-10---10---10----10----10----10-|-10---10---10----10----10----10-|
g|----9----9----11----10----10----|----9----9----11----10----10----|
d|--------------------------------|--------------------------------|
a|--------------------------------|--------------------------------|
e|--------------------------------|--------------------------------|

e|--7---7---7---7---7---7--|--7---7---7---7---7---7--|
b|--8---8---8---8---8---8--|--8---8---8---8---8---8--|
g|----7---7---7---7---7----|----7---7---7---7---7----|
d|-------------------------|-------------------------|
a|-------------------------|-------------------------|
e|-------------------------|-------------------------|

e|--9---8----8-----10----10----10-|--9---8----8-----10----10----10-|
b|-10---10---10----10----10----10-|-10---10---10----10----10----10-|
g|----9----9----11----10----10----|----9----9----11----10----10----|
d|--------------------------------|--------------------------------|
a|--------------------------------|--------------------------------|
e|--------------------------------|--------------------------------|

e|--7---7---7---7---7---7--|--7---7---7---7---7---7--|
b|--8---8---8---8---8---8--|--8---8---8---8---8---8--|
g|----7---7---7---7---7----|----7---7---7---7---7----|
d|-------------------------|-------------------------|
a|-------------------------|-------------------------|
e|-------------------------|-------------------------|

e|--9---8----8-----10----10----10-|--9---8----8-----10----10----10-|
b|-10---10---10----10----10----10-|-10---10---10----10----10----10-|
g|----9----9----11----10----10----|----9----9----11----10----10----|
d|--------------------------------|--------------------------------|
a|--------------------------------|--------------------------------|
e|--------------------------------|--------------------------------|

e|--7---7---7---7---7---7--|--7---7---7---7---7---7--|
b|--8---8---8---8---8---8--|--8---8---8---8---8---8--|
g|----7---7---7---7---7----|----7---7---7---7---7----|
d|-------------------------|-------------------------|
a|-------------------------|-------------------------|
e|-------------------------|-------------------------|
				     unido
e|-8----10----------|-8----10--------7-|-7----10--10------|
a|-10---10----------|-10---10--------8-|-8----10--10------|
b|-9----11----------|-9----11--------7-|-7----11--10------|
g|------------------|------------------|------------------|
d|------------------|------------------|------------------|
a|------------------|------------------|------------------|

FÍN

Fuente original: LaCuerda
Colaborador original: Vladimir Ulises Ramos Quiñonez [[email protected]]

Que te parecio? Calificalo con estrellas!!

Rating: 7.1/10 (3043 votos)

Este fichero es trabajo propio de su transcriptor y representa su interpretación personal de la canción. El material contenido en esta página es para exclusivo uso privado, por lo que se prohibe su reproducción o retransmisión, así como su uso para fines comerciales.


Deja tus comentarios:

Letras de Mana
Letras de canciones | Musica Independiente