Acordes y tablaturas para guitarra

Acordes y Tablaturas
Usuario: Password:

Buscar:
Acordes y Tablaturas >> Letra M >> Acordes de Mana >> El celoso
Tablatura de El celoso, Mana

El celoso

Mana






INTRO: C - G - D - G
e|-------------12-14-15-15-15-15-14-12-10----10-7-----------------
B|-------13.---13-15-17-17-17-17-15-13-12---------8-7---7---7-----
G|-12-12----------------------------------------------9---9---9.--
D|----------------------------------------------------------------
A|----------------------------------------------------------------
E|----------------------------------------------------------------

e|-15-15-13.---12-10-12-10-8--7--------------------------------------|
B|-17-17-14.---13-12-13-12-10-8-------7-------7----------------------|
G|--------------------------------7-9---9-7-9---9-7-9.-7-9-7-6-5-4.--|
D|-------------------------------------------------------------------|
A|-------------------------------------------------------------------|
E|-------------------------------------------------------------------|


G				(Riff 1)
Si no estás conmigo nada importa
			G   (Riff 2)
el vivir sin verte es morir
			     D (Riff 3)
si no estas conmigo hay tristeza
			     G   - G7 (Riff 4)
y la luz del sol no brilla igual.

	C			G (Riff 5)
Sin tu amor los celos me consumen
	D		  G (Riff 6)
y el temor no me deja dormir
	C		G (Riff 7)
dime tu qué hago vida mía
	D		     G
sin tu amor yo voy a enloquecer.


Solo: C - G - D - G
e|----------------12-14-15-15-15-15-14-12-10---10-7------------------
B|-------13-13.---13-15-17-17-17-17-15-13-12--------8-7---7---7------
G|-12-12-------------------------------------------------9---9---9.--
D|-------------------------------------------------------------------
A|-------------------------------------------------------------------
E|-------------------------------------------------------------------

e|-15-15-13.---12-10-12-10-8--7--------------------------|
B|-17-17-14.---13-12-13-12-10-8-----5-6-5----------------|
G|--------------------------------7-------7-5-4----------|
D|----------------------------------------------7-5------|
A|--------------------------------------------------8-7--|
E|-------------------------------------------------------|


	C			G (Riff 8)
Sin tu amor los celos me consumen
	D		  G (Riff 4)
y el temor no me deja dormir
	C		G (Riff 9)
dime tu qué hago vida mía
	D		     G
sin tu amor yo voy a enloquecer.


Final: C - G - D - G
e|------------------10-12---12-14-15-15-15-15-14-12-10---7/8-7--7-7--
B|---------10-12-13----13---13-15-17-17-17-17-15-13-12---8---8--8-8--
G|-9-11-12-----------------------------------------------------------
D|-------------------------------------------------------------------
A|-------------------------------------------------------------------
E|-------------------------------------------------------------------

					|----3 veces----|
e|-15-15-14.---14-14-12-10-12-10-8--7--------8---8--7.-----|
B|-17-17-15.---15-15-13-12-13-12-10-8----------------------|
G|---------------------------------------7/9---9-----------|
D|---------------------------------------------------------|
A|---------------------------------------------------------|
E|---------------------------------------------------------|


RIFFS:

Riff 1
e|---------------|
B|-7-8-10-8-7-5--|
G|-7-9-11-9-7-5--|
D|---------------|
A|---------------|
E|---------------|

Riff 2
e|----------------------------------|
B|-----7-------7--------------------|
G|-7-9---9-7-9---9-7-9-7-9-7-6-5-4--|
D|----------------------------------|
A|----------------------------------|
E|----------------------------------|

Riff 3
e|----------------|
B|-7-8-10-7-8-10--|
G|-7-9-11-7-9-11--|
D|----------------|
A|----------------|
E|----------------|

Riff 4
e|-------------------------|
B|----5-6-5----------------|
G|--7-------7-5-4----------|
D|----------------7-5------|
A|--------------------8-7--|
E|-------------------------|

Riff 5
e|-10-9--10/12-9--10/12-9--10--|
B|-12-11-12----11-12----11-12--|
G|-----------------------------|
D|-----------------------------|
A|-----------------------------|
E|-----------------------------|

Riff 6
e|------------7-8-10-10-10-10-10-7-----------------|
B|-----7-8-10----------------------8-7---7---7-----|
G|-7-9---------------------------------9---9---9.--|
D|-------------------------------------------------|
A|-------------------------------------------------|
E|-------------------------------------------------|

Riff 7
e|-7-7-7-----10-9--10/12-9--10/12-9--10--|
B|-8-8-8-----12-11-12----11-12----11-12--|
G|---------------------------------------|
D|---------------------------------------|
A|---------------------------------------|
E|---------------------------------------|

Riff 8
e|------------7---------------|
B|-----7-8-10---10-8-7---7----|
G|-7-9-----------------9---9--|
D|----------------------------|
A|----------------------------|
E|----------------------------|

Riff 9
e|------------7-------------7--|
B|-----7-8-10---10-8-7-8-10----|
G|-7-9-------------------------|
D|-----------------------------|
A|-----------------------------|
E|-----------------------------|




*¡NOTA!: El D de las estrofas, tambièn puede ser D7, por el ritmo de la canción.








             		--------
          	     º-| ¤    ¤ |-º
        	     º-|  LuïS  |-º
          	     º-| ¤    ¤ |-º
   	                      /
     		         |    |
	      ·===========================·
	      | [email protected] |
	      ·===========================·


*Si hubiese algún error o alguna duda, escribe al mail o avisa por MSN*

Fuente original: LaCuerda
Colaborador original: Luis [[email protected]]

Que te parecio? Calificalo con estrellas!!

Rating: 4.0/10 (70 votos)

Este fichero es trabajo propio de su transcriptor y representa su interpretación personal de la canción. El material contenido en esta página es para exclusivo uso privado, por lo que se prohibe su reproducción o retransmisión, así como su uso para fines comerciales.


Deja tus comentarios:

Letras de Mana
Letras de canciones | Musica Independiente