Enviado por:
Anonimo

Mana, Dejame Entrar

e. caballero

G---------------------------------------
D---------------------------------------
A-00--00--00--00--00--00--00--00--------
E---------------------------------------

G---------------------------------------
D-------55-55--00-00-0-0-0----------------
A-00-00--------------------00-00-00-00----
E---------------------------------------

QUIERO VIVIR EN TUS MUSLOS...

G---------------------------------------------------------
D-7-7777-7-7777-5-5555-5-5555-0-0000-0-0000-7-7777-7-7777-
A---------------------------------------------------------
E---------------------------------------------------------

REPETIR HASTA EL CORO

DEJA CLAVARME YA...

G--------------------------------------------
D--------------------------------------------
A-0-0000-0-0000-0-0000-0-0000----------------
E--------------------------------------------
  DEJA CLAVARME YA  Y DEJAME ENTRAR
G---------------5--5--7-7--------------------
D----7---7-7-7---------------7---------------
A--------------------------------------------
E--------------------------------------------


ASI SE VA , DESPUES DEL PRIMER CORO SE REPITE TODO
Y TERMINA



PARA LOS QUE YASE SEPAN TODOS LOS ACORDES EN EL BAJO
NO ES NECESARIO QUE PIDAN LOS ACORDES PARA BAJO, USTEDES 
SOLOS PUEDEN SACARLOS SI TIENEN LOS ACORDES EN GUITARRA
CON ESO PUEDEN SACAR EL BAJO SOLO LE AGREGAN ALGUNOS ADORNOS
PARA QUE SE ESCUCHE MEJOR.

Fuente original: LaCuerda
Colaborador original: eduardo caballero [[email protected]]
Aviso: Este fichero es trabajo propio de su transcriptor y representa su interpretación personal de la canción. El material contenido en esta página es para exclusivo uso privado, por lo que se prohibe su reproducción o retransmisión, así como su uso para fines comerciales.

Califica esta canción


Comentarios en Facebook