Enviado por:
Anonimo

Mana, Cuando Los Angeles Lloran

atencion: para tocar el intro de esta cancion deves
          usar un capodastro(segillo artificial)INTRO:


e|---4------4------------|---5-----5^4-2-------|
B|---5----5---7---5-2----|---4---4--------4----|
G|---4--4-------------4--|---4-4------------4--|
D|---2-------------------|---2-----------------|
A|----------------4------|-------------2-------|
E|-----------------------|---------------------|



e|---4------4------------|---5-----5--------------|
B|---5----5---7---5-2----|---4---4------5--4^2-4--|
G|---4--4-------------4--|---4-4-----6------------|
D|---2-------------------|---2--------------------|
A|----------------4------|--------------2---------|
E|-----------------------|------------------------|



e|---4---7-5-4---------2-|-----4---------------------------|---2-4-5-4-2-------------|
B|---5---------7-5-4-4---|---5---7-5-4---------2----5---2--|-------------5-5--4^2-4--|
G|---4-------------4-----|---6---------6-4---2----4---2----|-------------------------|
D|---2-------------4-----|---6-------------2---------------|-------------------------|
A|-----------------2-----|---4-----------------------------|---------------2---------|
E|-----------------------|------------------------4---2----|-------------------------|



e|---4---7-5-4---------2-|-----4---------------------------|---2-4-5-4-2-------------|
B|---5---------7-5-4-4---|---5---7-5-4---------2----5---2--|-------------5-5--4^2-4--|
G|---4-------------4-----|---6---------6-4---2----4---2----|-------------------------|
D|---2-------------4-----|---6-------------2---------------|-------------------------|
A|-----------------2-----|---4-----------------------------|---------------2---------|
E|-----------------------|------------------------4---2----|-------------------------|




e|-----------2-4-5--7-----4^2--------|--------------|
B|-----2-4-5-----------5-------5-4---|---------5^4--|
G|---4-------------------------------|-------6------| Fin INTRO
D|------------------6-----2----------|-----6--------| Quitar el Campo-Traste
A|---------------------4-------2-----|---4----------|
E|-----------------------------------|--------------|



RIFF 1:


e|---------------------------------------|
B|----0---0---0---0-------0---0---0---0--|
G|--2---1---2---1---1-1^2---1---2---1----|
D|---------------------------------------|
A|---------------------------------------|
E|---------------------------------------|



e|---------------------------------------|--4-4-4-4------------|--------------------|
B|----0---0---0---0-------0---0---0---0--|--5-5-5-5-5-5-5^7-7--|---7-7-7-7-4-4-4^5--|
G|--2---1---2---1---1-1^2---1---2---1----|----------6-6-6^8-8--|---8-8-8-8-4-4-4^6--|
D|---------------------------------------|---------------------|--------------------|
A|---------------------------------------|---------------------|--------------------|
E|---------------------------------------|---------------------|--------------------|



e|----------------|------------------------------------|
B|---5-5-2-2-2^0--|-----0---0---0-------0---0---0---0--|
G|---6-6-2-2-2^1--|---1---2---1---1-1^2---1---2---1----|
D|----------------|------------------------------------|
A|----------------|------------------------------------|
E|----------------|------------------------------------|





c#m			b
A chico Mendez lo mataron

e --------------
b -----4-5-7----
g -----4-6-8----
                       a
era un defensor y un angel 

e --------------
b ---2-4-5------
g ---2-4-6------

		e
de toda la amazonia

e|---------------------------------------|
B|----0---0---0---0-------0---0---0---0--|
G|--2---1---2---1---1-1^2---1---2---1----|
D|---------------------------------------|
A|---------------------------------------|
E|---------------------------------------|

c#m                 b
el murio a sangre fria
		      a
lo sabia a color de melo
		e
Y tambien la policia


RIFF 2:


e|--4-----5-----4-----5--------|--4-----5-----4-----5--------|
B|----5-----5-----5-----5------|----5-----5-----5-----5------|
G|------4-----4-----4-----4----|------4-----4-----4-----4----|
D|-----------------------------|-----------------------------|
A|-----------------------------|-----------------------------|
E|-----------------------------|-----------------------------|



g#m			c#m
Cuando los angeles lloran   e --------------
                            b -----4-5-7----
                            g -----4-6-8----
         

                      a
lluvia cae sobre la aldea   e------4-5-4----
                            b------5-5-4----

                 e
sobre el campanario
		b
pues alguien murio



CORO
	    c#m
Un angel cayo
a	     e
un angel murio
b	     c#m
un angel se fue
a	e	b
Y no volvera


e|--4-4-4-4------------|--------------------|
B|--5-5-5-5-5-5-5^7-7--|---7-7-7-7-4-4-4^5--|
G|----------6-6-6^8-8--|---8-8-8-8-4-4-4^6--|
D|---------------------|--------------------|
A|---------------------|--------------------|
E|---------------------|--------------------|


e|----------------|------------------------------------|
B|---5-5-2-2-2^0--|-----0---0---0-------0---0---0---0--|
G|---6-6-2-2-2^1--|---1---2---1---1-1^2---1---2---1----|
D|----------------|------------------------------------|
A|----------------|------------------------------------|
E|----------------|------------------------------------|




c#m		   b
Cuando el asesino huia
e --------------
b -----4-5-7----
g -----4-6-8----
		  a
chico Mendez se moria
e --------------
b ---2-4-5------
g ---2-4-6------
			e
la selva se ahogaba en llanto
e|---------------------------------------|
B|----0---0---0---0-------0---0---0---0--|
G|--2---1---2---1---1-1^2---1---2---1----|
D|---------------------------------------|
A|---------------------------------------|
E|---------------------------------------|
B			
   c#m               b
el dejo dos lindos crios 
		a
una esposa valerosa
		e 
y una selva en agonia
g#m			c#m
Cuando los angeles lloran
			a 
es por cada arbol que muere
 			e
cada estrella que se apaga
	b 
oh no noo no


CORO
       c#m
Un angel cayo
a	     e
un angel murio
b	     c#m
un angel se fue
a	e	b
Y no volvera
	  c#m
Un angel cayo
a	     e
un angel murio
b	    c#m
un angel se fue
a			e
se fue volando en madrugada



e|-------------|
B|---2-2-5-5---|
G|-------------|   Repetir 14 Veces
D|-------------|
A|-------------|
E|-------------|


e|--------------|
B|---9-9-10-10--|
G|---9-9-9--9---|  Repetir 9 veces
D|--------------|
A|--------------|
E|--------------|


SOLO:

e|-----------4-------|-------7-9--------|
B|---------5----7^9--|---7^9-----9-7-4--|
G|-------6-----------|------------------|
D|-----6-------------|------------------|
A|---4---------------|------------------|
E|-------------------|------------------|


e|-----------------------------------------|
B|---4-4-4--5-7--7-9--5-7--4-5--2-4-0------|
G|------------------------------------2-1--|
D|-----------------------------------------|
A|-----------------------------------------|
E|-----------------------------------------|


e|------------------------------9--8-9--11-|
B|---------------------7-9------10-9-10-9--|
G|--------------6-8-9----------------------|
D|--5^6-6-6/--9-8--------------------------|
A|-----------------------------------------|
E|-----------------------------------------|


e|---11-12-14-11-12--9-11--7-9----7----5---4--0-2---0---------------------|
B|-----------------------------10----9---7--------4----2-4-0---3-4-6------|
G|-------------------------------------------------------------------3^5--|
D|------------------------------------------------------------------------|
A|------------------------------------------------------------------------|
E|------------------------------------------------------------------------|


Bm			
Cuando los angeles lloran
G			D		
cuando los angeles lloran



 esta es unas de las mejores canciones 
 que a tenido MANÀ

Fuente original: LaCuerda
Colaborador original: mauro santibañes [[email protected]]
Aviso: Este fichero es trabajo propio de su transcriptor y representa su interpretación personal de la canción. El material contenido en esta página es para exclusivo uso privado, por lo que se prohibe su reproducción o retransmisión, así como su uso para fines comerciales.

Califica esta canción


Comentarios en Facebook