Enviado por:
Anonimo

Mana, Con Pinta De Una Diva

Imprimir
Este es el intro que es lo mismo durante toda la cancion menos en la 
parte del coro. Esa parte no me la se, si la saco se las escribo. 
La cacion es bien facil. Ahora mismo no estoy seguro si la guitarra 
esta afinada normal o si esta baja. Cualquier cosa toquen esto mismo mas
arriba o abajo, como mejor les suene. 


e|-------------------------------------------------|
B|-------------------------------------------------|
G|-------------------------------------------------|
D|----11--12----------------------12-12-11-11-9----|
A|--9--------------11-12----12-11---------------8--|
E|------------9-10------10-------------------------|


e|-----------------------------------------------|
B|-----------------------------------------------|
G|-----------------------------------------------|
D|----11--12-------------------------------------|
A|--9--------------11-12----12-11--------8-10-8--|
E|------------9-10------11---------10-9----------|

Esto se repite y se repite durante el resto de la cancion.
Cualquier error escribanlo en el atame (no tengo e-mail)  

Boricuas rule!

Fuente original: LaCuerda
Colaborador original: Pablo Vega =============================== www.atame.org =============================== Este fichero es trabajo propio de su transcriptor y representa su interpretación personal de la canción. El usuario se compromete a utilizar este material únicamente para su aprendizaje y estudio personal. Para poder incluir este fichero en otro sitio Web, es necesario mencionar el origen del mismo [www.atame.org]
Aviso: Este fichero es trabajo propio de su transcriptor y representa su interpretación personal de la canción. El material contenido en esta página es para exclusivo uso privado, por lo que se prohibe su reproducción o retransmisión, así como su uso para fines comerciales.

Califica esta canción


Comentarios en Facebook