Enviado por:
Anonimo

Mana, Como Un Perro Enloquecido

b= bend         h= hammer
r= release      p= pull
/= slide up     x= palm mute
= slide down   
~= vibrato

  SOLO:

E|---------------------------------------------------------------|
B|---------------------------/14---------------------------------|
G|------9-11-11/13-9-11-9-11-----13-11-9-9-9-11-9-11/13-11p9-----|
D|-9/10------------------------------------------------------9~-|
A|---------------------------------------------------------------|
E|---------------------------------------------------------------|

E|-------------7~---8/98/9~--12-12p11p9-12--8/9-9-9-11-12-12/14-|
B|----------------------------------------------------------------|
G|-8h9-9-9-8h9----9-----------------------------------------------|
D|----------------------------------------------------------------|
A|----------------------------------------------------------------|
E|----------------------------------------------------------------|


E|-14p12p11---------------------------12-------------------------|
B|----------14~--14-14-14-12-------12----------------------16h18-|
G|---------------------------14-13-------14p13p11-9-911~-------|
D|---------------------------------------------------------------|
A|---------------------------------------------------------------|
E|---------------------------------------------------------------|


E|-------------17p16p14------------------12--------------|
B|-17p16p14-14----------16h17-17-----12---12------------|
G|---------------------------------13---------139-9~---|
D|-------------------------------------------------------|
A|-------------------------------------------------------|
E|-------------------------------------------------------|

Esto se toca un poco despues del solo:

E|-----------------------|
B|----4-5-7-5-4----------|
G|--5-----------5---6~--|
D|----------------7------|
A|-----------------------|
E|-----------------------|

Este es el primer solo que saco asi que puede tener muchos
errores. Para cualquier comentario, correccion o duda escribanme.

Fuente original: LaCuerda
Colaborador original: Guillermo Lopez [[email protected]]
Aviso: Este fichero es trabajo propio de su transcriptor y representa su interpretación personal de la canción. El material contenido en esta página es para exclusivo uso privado, por lo que se prohibe su reproducción o retransmisión, así como su uso para fines comerciales.

Califica esta canción


Comentarios en Facebook