Enviado por:
Anonimo

Mana, Como Te Extraño Corazon

Imprimir
Intro (x2)


G|----------------|----------------|----------------|---------------|
D|---5------5-5---|---9------9-9---|---7------7-7---|---------------|
A|-3---3-3------3-|-7---7-7------7-|-5---5-5------5-|---5-----2-2---|
E|----------------|----------------|----------------|-3---3-3-----3-|

G|------|------|
D|------|------|
A|------|------|
E|-8/0--|-8/0--|


Verso 1


G|----------------|----------------|----------------|---------------|
D|---5------5-5---|---9------9-9---|---7------7-7---|---------------|
A|-3---3-3------3-|-7---7-7------7-|-5---5-5------5-|---5-----2-2---|
E|----------------|----------------|----------------|-3---3-3-----3-|

Teníamos algunos años cuando yo entonces yo te conocí frente al mar...


G|----------------|----------------|----------------|---------------|
D|---5------5-5---|---9------9-9---|---7------7-7---|---------------|
A|-3---3-3------3-|-7---7-7------7-|-5---5-5------5-|---5-----2-2---|
E|----------------|----------------|----------------|-3---3-3-----3-|

Teníamos la cabeza llena de ideales y repleto el corazón de amor...

G|----------------|----------------|----------------|---------------|
D|---5------5-5---|---9------9-9---|---7------7-7---|---------------|
A|-3---3-3------3-|-7---7-7------7-|-5---5-5------5-|---5-----2-2---|
E|----------------|----------------|----------------|-3---3-3-----3-|

Fuiste mi profunda vida, fuiste mi profunda herida, fuiste mi primer amor


G|----------------|----------------|----------------|---------------|
D|---5------5-5---|---9------9-9---|---7------7-7---|---------------|
A|-3---3-3------3-|-7---7-7------7-|-5---5-5------5-|---5-----2-2---|
E|----------------|----------------|----------------|-3---3-3-----3-|

Eres lo que más recuerdo, eres lo que yo he soñado, fuiste mi mejor amor
Oh amor...


G|------|------|
D|------|------|
A|------|------|
E|-8/0--|-8/0--|

Coro

G|---------|----------|---4-|----------|-----|----------|---------------|
D|-------7-|----------|-2---|----------|-----|----------|---5-------5---|
A|-3-4-5---|------5---|-----|------7---|---3-|------5---|-3----3-3----3-|
E|---------|-3-3----3-|-----|-5-5----5-|-1---|-3-3----3-|---------------|

Cómo... cómo te extraño corazón... yo no te puedo olvidar...

G-------|----------|---4-|----------|-----|----------|---------------|
D|----7-|----------|-2---|----------|-----|----------|---5-----------|
A|--5---|------5---|-----|------7---|---3-|------5---|-3----------2--|
E|------|-3-3----3-|-----|-5-5----5-|-1---|-3-3----3-|------3-3----3-|

Cómo... cómo te extraño corazón... yo no te puedo olvidar...


Verso 2

El arreglo es igual que el verso 1

Íbamos siempre a caminar... sin parar...
Siempre buscando la oscuridad... buscando la libertad de explorar nuestra piel...
Yo te di amor del bueno... tu me diste amor del bueno... empapados en amor
Me entregue profundamente... te entregaste con el alma... empapados en amor... oh amor...

Coro

G|---------|----------|---4-|----------|-----|----------|---------------|
D|-------7-|----------|-2---|----------|-----|----------|---5-------5---|
A|-3-4-5---|------5---|-----|------7---|---3-|------5---|-3----3-3----3-|
E|---------|-3-3----3-|-----|-5-5----5-|-1---|-3-3----3-|---------------|

Cómo... cómo te extraño corazón... yo no te puedo olvidar...

G-------|----------|---4-|----------|-----|----------|--------------|
D|----7-|----------|-2---|----------|-----|----------|--------------|
A|--5---|------5---|-----|------7---|---3-|------5---|---7-------7--|
E|------|-3-3----3-|-----|-5-5----5-|-1---|-3-3----3-|-5----5-5---5-|

Cómo... cómo te extraño corazón... yo no te puedo olvidar...

G|--------------|--------------|----------------------|------------|
D|--------------|--------------|----------------------|------------|
A|---3------3---|--------------|----------------------|------------|
E|-1---1-1----1-|-0-7--0-0-7-0-|-5-5--5-5-5-5-5-3-5-5-|-5-5-3-5-0--|

En olvidar... se me pasa la vida soñando...

G|--------------|--------------|-------------------------------|
D|--------------|--------------|-------------------------------|
A|---3------3---|--------------|--------------------5----------|
E|-1---1-1----1-|-0-7--0-0-7-0-|-5-5--5-5-5-5-5-5-3---3-3--5-7-|

En olvidar se me ha ido la vida volando... ohh


Coro

G|------|----------|---4-|----------|-----|----------|---------------|
D|----7-|----------|-2---|----------|-----|----------|---5-------5---|
A|--5---|------5---|-----|------7---|---3-|------5---|-3----3-3----3-|
E|------|-3-3----3-|-----|-5-5----5-|-1---|-3-3----3-|---------------|

Cómo... cómo te extraño corazón... yo no te puedo olvidar...

G|------|----------|---4-|----------|-----|----------|---------------|
D|----7-|----------|-2---|----------|-----|----------|---5-------5---|
A|--5---|------5---|-----|------7---|---3-|------5---|-3----3-3----3-|
E|------|-3-3----3-|-----|-5-5----5-|-1---|-3-3----3-|---------------|

Cómo... cómo te extraño corazón... yo no te puedo olvidar...

G|---------------|-------------|--------------|----------------|
D|---------------|-------------|---5------5---|----------------|
A|---7------7-7--|---3-----5---|-3---3-3----3-|---3-----5------|
E|-5---5-5-----5-|-1---3-3---3-|--------------|-1---3-3---3-5--|

Yo no te puedo olvidar... yo no te puedo olvidar...

G|------|------------|---------------|-----------------|
D|------|------------|---5-------5---|-----5-------5---|
A|------|-7-7--5-5---|-3---3-3-3---3-|-3-3---3-3-3-----|
E|-8/0--|----------3-|---------------|---------------7-|

				Ohhh... (a partir de aquí 
                                       repites hasta el final)

G|--------------|--------------|----------------|---------------|
D|-----7-7------|-----7-7------|----------------|-----5-5----5--|
A|---7------7---|---7------7---|---3--------3---|---5------5----|
E|-5----------5-|-5----------5-|-1---1-1-1----1-|-3-------------|

					repites...


FIN

Fuente original: LaCuerda
Colaborador original: Juan Pablo Gómez Tesén [[email protected]]
Aviso: Este fichero es trabajo propio de su transcriptor y representa su interpretación personal de la canción. El material contenido en esta página es para exclusivo uso privado, por lo que se prohibe su reproducción o retransmisión, así como su uso para fines comerciales.

Califica esta canción


Comentarios en Facebook