Enviado por:
Anonimo

Mana, Como Te Extraño Corazon

Imprimir
BUEEEEEEEEEEEEEEEEENO PUES LES MANDO ESTA TAB, ESTA VEZ NO TENGO A QUIEN
DEDICARSELA PERO QUE CHINGAOS, ESCUCHENLA BIEN, CREO QUE SI ESTA BIEN


INTRO Y VERSO
G---------------------------
D---5--5--------------------
A-3------3--33-3------------
E----------------3----------
  C

G--------------------------
D--------------------------
A---7--7-------------------
E-5-------5--55-5-0-0------
  A

G----------------------------
D---7--7---------------------
A-5------5-55-5----5---------
E--------------5--5----------
  D

G--------------------------
D--------------------------
A---5--5--------5-5--------
E-3-----3-3-3-3------------
  G
Despues como q se escucha q resvala la cuerda va esto:
G--------------------------
D--------------------------
A--------------------------
E-8-0-8h-------------------

Coro:

G----------------------------
D---77----------99----55-----
A-5---5---55---7--7--3---3---
E-------3----3---------------
  D     G      E     C


G------------------------------
D--------------55----55--------
A--77-----55--3--3--3--3-------
E-5--5--3---3------------------
  A     G     C     C

INTERLUDE

G----------------------------------
D---7--7-----5--5------------------
A-5-----5--3-----3---7-7----5-5----
E-------------------5---7--3----3--
  D        C        A      G

Fuente original: LaCuerda
Colaborador original: Marco A. Jiménez Manrique [[email protected]]
Aviso: Este fichero es trabajo propio de su transcriptor y representa su interpretación personal de la canción. El material contenido en esta página es para exclusivo uso privado, por lo que se prohibe su reproducción o retransmisión, así como su uso para fines comerciales.

Califica esta canción


Comentarios en Facebook