Enviado por:
Anonimo

Mana, Como Te Deseo

Intro (empieza cuando diga por segunda vez: como yo te deseo...)
G|---------------------------|
D|---------------------------|
A|-----------------5-5--7-7--| x2 
E|-5-5---5-5-5-5-------------|

Verso (se toca cuando dice me prendes tanto...)
G|------------------------------------|
D|------------------------------------|
A|-5--5-------------------------------| x4
E|---------5-5-5-5----7--7----3--3-3--|
                
Coro (te deseo..aha..aha..u..ha)
G|---------------------------------------|
D|---------------------------------------|
A|-5--5----------------------------------| x6
E|---------5-5--5-5----7--7----3-3--3-3--|

Pos-Coro (despues de es el pumpin pumpin de mi corazon...)
G|---------------|
D|---------------|
A|---------------|
E|--3-3--5--3-5--|

[Coro x8] Se toca el coro aunque este cantando la parte del Verso

Puente
G|--------------------------------------------|
D|--------------------------------------------|
A|-5-5-5--------------------------------------|
E|---------5--5-5-5-5----7-7-7----3--3-3-3-3--|

G|--------------------------------------------|
D|--------------------------------------------|
A|-5-5-5--------------------------------------| x2
E|---------5--5-5-5-5----7-7-7----2--2-2-2-2--|

[Intro] 
[Coro] hasta que se termine la cancion

Fuente original: LaCuerda
Colaborador original: José Ramón Arévalo [[email protected]]
Aviso: Este fichero es trabajo propio de su transcriptor y representa su interpretación personal de la canción. El material contenido en esta página es para exclusivo uso privado, por lo que se prohibe su reproducción o retransmisión, así como su uso para fines comerciales.

Califica esta canción


Comentarios en Facebook