Enviado por:
Anonimo

Mana, Como Dueles En Los Labios

II PARTE
LA LETRA LLEGA HASTA ...COMO FALTA SU PRESENCIA EN MI HABITACION...

E--------------------#------0-------0-1-0-------------------
B-0-0-0-0-0-0---1--3--1-1-1----3-3--3-3-1-1-1-1--3-3--------
G--0-0-0-0-0-0---0--0--0-0-0-0--0-0--0---0-0-0-0--0-0-------
D-----------------------------------------------------------
A---------------0--2--3--------2--------3--------2----------
E-0------00----------#--------------------------------------



E--3-1--0-0-0-0---------------------------------------------
B--0-0--1-1-1-1--3-3-----2--1-1-1-1-1-1---3-3--1------------
G---0-0--0-0-0-0--0-0---0----2-2-2-2-2-2---0-0--0-----------
D----------------------0------------------------------------
A-------3--------2----1-----0------00-----2----3------------
E-----------------------------------------------------------

Y VUELVE HASTA # Y PASA AL CORO:

...COMO DUELES, EN LOS LABIOS...
                                         (SOLEDAD...)
E-----------------------------------------0-----------------
B-1-1-1-1--1-1-1-1--1-1-1-1---4-4-4-4-----1-----------------
G--2-2-2-2--2-2-2-2--2-2-2-2---3-3-3-3----------------------
D-----------------------------------------------------------
A-----------------------------------------3-----------------
E-3--------2--------1---------3-----------------------------

EL FINAL ES PARECIDO AL CORO, PERO CON UNA VARIACION Y CON 
EL PULSO MAS ACELERADO
                                (SE REPITE)
E---------------------------------
B-1-1--1-1--1-1---3-3---0-0-3-3---
G--2-2--2-2--2-2---2-2---1-1-1-1--
D-----------------0---------------
A-0-------------------------------
E------3----2-----------0---------

Fuente original: LaCuerda
Colaborador original: JUAN PABLO DAZA [[email protected]]
Aviso: Este fichero es trabajo propio de su transcriptor y representa su interpretación personal de la canción. El material contenido en esta página es para exclusivo uso privado, por lo que se prohibe su reproducción o retransmisión, así como su uso para fines comerciales.

Califica esta canción


Comentarios en Facebook