Enviado por:
Anonimo

Mana, Como Diablos

Pues esta es una combinacion de toda la informacion que hay en la pagina
acerca de esta rola, mas el intro y el solo que saque. Espero
que les guste.


INTRO:

1. --------------------------------------4-2----------
2. ---------1-3----------1-4-----5-4-2-0------5-4-----
3. -2-2-2h4-------2-2-2h4-----------------------------
4. ---------------------------------------------------
5. ---------------------------------------------------
6. ---------------------------------------------------

1. --------------------------------------4-2--5-4-----
2. ---------1-3----------1-4-----5-4-2-0--------------
3. -2-2-2h4------2-2-2h4------------------------------
4. ---------------------------------------------------
5. ---------------------------------------------------
6. ---------------------------------------------------

ARMONICA:
5 (2 tiempos....) 4 (4) 5 4 (4)* 4 3
4 4 3 4 3 4 3
4 (4)* 4 3 (3)* 3 2

1. --5-5-5-5---------------0--
2. --5-5-5-5--10--9--7---0--
3. --6-6-6-6---9---9--8---0--
4. --7-6-6-6---7---9--9---0--    (Donde se hace 4 veces el acorde de A, son 2 ragueos para abajo,
5. --7-7-7-7---------------0--      uno arriba y el otro abajo).
6. --5-5-5-5---------------0--


E         B7             C#m          A
Quede ahogado entre tus muslos y tu miel,
E       B7              C#m       A
quede dañado cuando te fuiste con el,
E          B7            C#m        A
quede tan solo que he perdido la razon,
E          B7             A       C#m    B7
cai en tu fuego y esta quemando el corazon.

CORO:
E  B7        E        B7  
Como diablos te me metiste,
E          B7             E
me esta estallando el corazon,
1. ----------4---------
2. ----------5---------
3. ----------6---------
4. ----------6---------
5. -7-6-4----4---------
6. -------7--4---------
C#m  A       E           B7
como diablos te me perdiste,
A     E         B7
ay, ay, ay, ay, ay.

ARMONICA:
5 (2 tiempos...) 4 (4) 5 4 (4) 4 3
4 4 (3) 4 3   4 4 (3) 4 3
4 (3)*

E         B7           C#m            A
Estoy perdido en las venas de esta cuidad,
E       B7          C#m            A
extrañandote en la orilla de este bar,
E         B7               C#m         A
como una rosa que esta en medio de la mar,
E          B7        A       C#m      B7
me estas matando suavemente y sin piedad.

CORO:
E  B7        E        B7  
Como diablos te me metiste,
E          B7             E
me esta estallando el corazon,
1. ----------4---------
2. ----------5---------
3. ----------6---------
4. ----------6---------
5. -7-6-4----4---------
6. -------7--4---------
C#m  A       E           B7
como diablos te me perdiste,
A     E         B7
ay, ay, ay, ay, ay.

E  B7        E        B7  
Como diablos te me metiste,
E          B7             E
me esta estallando el corazon,
1. ----------4---------
2. ----------5---------
3. ----------6---------
4. ----------6---------
5. -7-6-4----4---------
6. -------7--4---------
C#m  A       E           B7
como diablos te me perdiste,
A     E         B7
ay, ay, ay, ay, ay.

SOLO: (Se toca muy rapido)
1. -----------------7-------------------------------------------------------------------
2. –9b-7p5-7-9~--7~----9-10h11p10-------7h9p7---7p5h7---9b-7p5-7b--9-9-9-9-7-5-7b-9b----
3. -------------------------------10b-7-------------------------------------------------
4. -------------------------------------------------------------------------------------
5. -------------------------------------------------------------------------------------
6. -------------------------------------------------------------------------------------


E          A                   B7
Si quiero vivir, tendre que olvidar,
         E        G#m  C#m
y voy a borrar tu amor,
           A                  B7
si quiero vivir, tengo que olvidar,
                  E
ihee ihee ehhh ohhhh.

1. --------------------------------------4-2----------
2. ---------1-3----------1-4-----5-4-2-0------5-4-----
3. -2-2-2h4-------2-2-2h4-----------------------------
4. ---------------------------------------------------
5. ---------------------------------------------------
6. ---------------------------------------------------

1. --------------------------------------4-2--5-4-----
2. ---------1-3----------1-4-----5-4-2-0--------------
3. -2-2-2h4------2-2-2h4------------------------------
4. ---------------------------------------------------
5. ---------------------------------------------------
6. ---------------------------------------------------

CORO:
E  B7        E        B7  
Como diablos te me metiste,
E          B7             E
me esta estallando el corazon,
1. ----------4---------
2. ----------5---------
3. ----------6---------
4. ----------6---------
5. -7-6-4----4---------
6. -------7--4---------
C#m  A       E           B7
como diablos te me perdiste,
A     E         B7
ay, ay, ay, ay, ay.

 E                     
Como, como diablos,
       A             B7
como duele, oh no no no,
 E
como, como diablos,
       A             B7
como duele, oh no no no,
 E 
como, como diablos,
       A                 B7
como duele, oh no no no noooo. <--- (Se acompaña con el intro)


Pues ahi esta este rolon completo, quiero darles gracias a los otros
colaboladores que mandaron acordes y tabs para esta rola, y pues
parece que esta es la version final de todos que se habian mandado.
Suerte!!

Fuente original: LaCuerda
Colaborador original: german ahumada [[email protected]]
Aviso: Este fichero es trabajo propio de su transcriptor y representa su interpretación personal de la canción. El material contenido en esta página es para exclusivo uso privado, por lo que se prohibe su reproducción o retransmisión, así como su uso para fines comerciales.

Califica esta canción


Comentarios en Facebook