Enviado por:
Anonimo

Mana, Como Diablos

Intro:
G |----------------------|-----------------------|---------
D |------6---------6-----|-----2-----------------|------6--
A |--7-7-----6-7-7-----6-|-4-4-----4-2-2-2-2-2-2-|-7-7-----
E |--------7---------7---|-------5---------------|--------7

                                            (entra bateria)
G |--------------|-------------------------|---------------
D |--------6-----|-----2-------------------|-----6---------
A |--6-7-7-----6-|-4-4-----4-2-2-2/7-6-4-2-|-7-7-----6-7-7-
E |----------7---|-------5-----------------|-------7-------


G |--------|-----------------------|--------------------|--
D |--6-----|-----2-----------------|-----6---------6----|--
A |------6-|-4-4-----4-2-2-2-2-2-2-|-7-7-----6-7-7----6-|-4
E |----7---|-------5---------------|-------7--------7---|--


G |----------------------|---------------------------------
D |----2-----------------|-7-7-6-4-2-----------------------
A |--4-----4-2-2-2-2-2-2-|---------------------------------
E |------5---------------|---------------------------------


Verso:
G |--------------------------------------------------------
D |--------------------------------------------------------
A |--7-7-7-7-7-6-6-6-6-6---------------------7-7-7-7-7-6-6-
E |----------------------9-9-9-9-9-7-7-7-7/9---------------


G |--------------------------------------------------------
D |--------------------------------------------------------
A |--6-6-6---------------------7-7-7-7-7-6-6-6-6-6---------
E |--------9-9-9-9-9-7-7-7-7/9---------------------9-9-9-9-


G |--------------------------------------------------------
D |--------------------------------------------------------
A |--------------7-7-7-7-7-6-6-6-6-6-----4-42-------------
E |--9-7-7-7-7/9---------------------5-5-------------------


Coro:
G |--------------------------------------------------------
D |--------------------------------------------------------
A |--7-7-----7-7-----7-7-----7----7-7-64-2-4-4-----7-7----
E |------7-7-----7-7-----7-7--------------------5-5-----7-7


G |--------------------------------------------------------
D |--------------------------------------------------------
A |--------4---2-------------------------------------------
E |--5---5-------------------------------------------------


Post-Chorus:
G |-------------------------------------------
D |-------------------------------------------  (x2)
A |--7-7-7-7-7-6-6-6-6-6----------------------
E |----------------------9-9-9-9-9-7-7-7-7/9-


Verso 2:
G |--------------------------------------------------------
D |--------------------------------------------------------
A |--6/7----7----76----6----6-----------------------7---7-
E |----------------------------9---9----97---7----9-------


G |--------------------------------------------------------
D |--------------------------------------------------------
A |--7-6---6----6---------------------7-7-7-7-7-6-6-6-6-6--
E |---------------9---9---9---7-7-7/9---------------------9


G |--------------------------------------------------------
D |--------------------------------------------------------
A |--------------------7-7-7-7-7-6-6-6-6-6-----4-42-------
E |--9-9-9-9-7-7-7-7/9---------------------5-5-------------


Coro:
G |--------------------------------------------------------
D |--------------------------------------------------------
A |--7-7-----7-7-----7-7-----7----7-7-64-2-4-4-----7-7----
E |------7-7-----7-7-----7-7--------------------5-5-----7-7


G |--------------------------------------------------------
D |--------------------------------------------------------
A |--------4---2-------------------------------------------
E |--5---5-------------------------------------------------
                    (TOCAR DOS VECES)

Solo de Guitarra:
G |--------------------------------------------------------
D |--------------------------------------------------------
A |--7-7-7-7-7-6-6-6-6-6---------------------7-7-7-7-7-6-6-
E |----------------------9-9-9-9-9-7-7-7-7/9---------------


G |--------------------------------------------------------
D |--------------------------------------------------------
A |--6-6-6-------------------------------------------------
E |--------9-9-9-9-9-7-7-7-7/9-----------------------------


Outro:
G |--------------------------------------------------------
D |--------------------------------------------------------
A |--124-4-4-4-4-----------2-2-2-2-2/7-7-----------4-4-4-4
E |---------------5-5-5-5-5------------------7----7--------


G |--------------------------------------------------------
D |--------------------------------------------------------
A |--4-----------2---2-2---2-2/4-7-------------------------
E |----5-5-5-5-5-------------------------------------------


*Tocar INTRO 1 vez, después el CORO 1 vez también.

*Luego tocar el INTRO denuevo hasta que acabe la canción.



Espero que la entiendan bien, sino escribanme, espero que 
les guste!

Fuente original: LaCuerda
Colaborador original: Rafael Wong [[email protected]]
Aviso: Este fichero es trabajo propio de su transcriptor y representa su interpretación personal de la canción. El material contenido en esta página es para exclusivo uso privado, por lo que se prohibe su reproducción o retransmisión, así como su uso para fines comerciales.

Califica esta canción


Comentarios en Facebook