Enviado por:
Anonimo

Mana, Chaman

Introduccion:

|-------7-------------------------5-------------------------------|
|---7-----7--------5----------5-----5--------5--------------------|
|-----7----------7---7----------6----------7---7------------------|
|-9------------7-------7----7------------7-------7----------------|
|-----------------------------------------------------------------|
|-----------------------------------------------------------------|

Corros usados:

|--7----5----7----3----5----2-------------------------------------|
|--7----5----7----3----5----2-------------------------------------|
|--7----7----9----4----6----3-------------------------------------|
|--9----7----9----5----7----4-------------------------------------|
|--9----5----7----5----7----4-------------------------------------|
|--7----5----7----3----5----2-------------------------------------|

   Bm   D5   E5   G    A    F#


__________________________________________________________________


(Toca introduccion hasta *)

Iva andando en el camino 
de un desierto de su luz
Hacia el norte era real
Iva buscando entre cactus
Que illuminan con su luz
Que illuminan la verdad

Oh no, je hea, oh no,
Yo te tengo que encontrar

(Bateria entra)

Al fin llegamos a una selva
en el poblado de Manaus
Amazona tropical
Alli arribamos a un santuario
Y nos recibio un chaman
Nos tomo en su regaso*


 (Bm)   (D5)(E5)   (G)(D5) (E5)    (A)(D5)(E5)    (G)-(F#)-(A)

Jamas, dejes de amar cuenta el chaman el amor es todo   


(Bm)   (D5)(E5)   (G)(D5) (E5)    (A)(D5)(E5)    (G)-(F#)-(A)

Jamas, dejes de amar dejes de sonar el amor es todo



(Toca introduccion hasta *)


Ya en medio de la selva
entre los ritios del chaman
Yo te empese a mirar
Y comensamos a reir
Juntos comensamos a sonar
Na na na na na na na na na



(ESTRIBILLO)

 (Bm)   (D5)(E5)   (G)(D5) (E5)    (A)(D5)(E5)    (G)-(F#)-(A)

Jamas, dejes de amar cuenta el chaman el amor es todo   


(Bm)   (D5)(E5)   (G)(D5) (E5)    (A)(D5)(E5)    (G)-(F#)-(A)

Jamas, dejes de amar dejes de sonar el amor es todo




(Solo)



(Bajo y bateria solamente)



Si se muere   (4 times)

|----------------|
|----------10----|
|--11------------|
|------12--------|   (Harmonicas)
|----------------|
|----------------|



(Toca introduccion hasta *)

Iva traer flores el deseo
Cubierto de mariposas el la piel
El aura illuminaba el rio
Nunca dejes de amar
Nos decia el chaman


(Bm)

Oh no             Je hea


(Bm)                 (A)(A)(F#)(F#)

Oh no             Je hea



(Estribillo)



D - G - Bm - A 

Cm - Gm 

(Toca hasta que se acabe la cancion)


---------------------------------------------------------------------
Usa guitarra acoustica en la ultima parte

                               
                              E |-7-7-7----3-3-3-3/5--------------------|
                              B |-8-8-8----5-5-5-5/7--------------------|
                              G |---------------------------------------|
Nunca dejes de amar, amar mas

                              E |-3---7---5-5---3---5-------------------|
                              B |-5---8---7-7---5---7-------------------|
                              G |---------------------------------------|
De amar


                              E |-7-7-7---3-3-3-3---7-7-7---0-0-0/3---|
                              B |-8-8-8---5-5-5-5---8-8-8---2-2-2/5---|
                              G |---------------------------------------|
Nunca dejes de sonar, sonar mas


                                |-7-7-7--9--9--9---10-10--12--9---------|
                                |-8-8-8--10-10-10--12-12--14--10--------|
                                |---------------------------------------|
De sonar      No no no no no no


(Repeat until "De Amar")

Then:

|----10-------9-------7-----5-----3---5-------0-5-3-2-0--/5-3-2-0-------|
|-12----12------10------8-----7-----5-----------------------------------|
|----------10------11-----9-----7---------------------------------------|
|-----------------------------------------------------------------------|
|-----------------------------------------------------------------------|
|-----------------------------------------------------------------------|


Preguntas, commentarios, addicionales canciones que les
gustaria que pusiera? Mandenme correo a [email protected]

Fuente original: LaCuerda
Colaborador original: ]
Aviso: Este fichero es trabajo propio de su transcriptor y representa su interpretación personal de la canción. El material contenido en esta página es para exclusivo uso privado, por lo que se prohibe su reproducción o retransmisión, así como su uso para fines comerciales.

Califica esta canción


Comentarios en Facebook