Enviado por:
Anonimo

Mana, Chaman

Afinación : 4-40
Acordes   : Bm = Sim / D5 = Re5 / E5 = Mi5 / G = Sol / A = La / F#m = Fa#m

|  Bm    |  D5    |  E5    |  G     |  A     |  F#m   |
|  1: 2  |  1: 5  |  1: 7  |  1: 3  |  1: 5  |  1: 2  |
|  2: 3  |  2: 5  |  2: 7  |  2: 3  |  2: 5  |  2: 2  |
|  3: 4  |  3: 7  |  3: 9  |  3: 4  |  3: 6  |  3: 3  |
|  4: 4  |  4: 7  |  4: 9  |  4: 5  |  4: 7  |  4: 4  |
|  5: 2  |  5: 5  |  5: 7  |  5: 5  |  5: 7  |  5: 4  |
|  6: 2  |  6: 5  |  6: 7  |  6: 3  |  6: 5  |  6: 2  |

Las estrofas van acompañadas por esta melodia:

e--------7-----------------------5-----------------------
B----7-----7-------5---------5-----5---------------------
G--4---4---------7---7-----2---2---------6-7-6-----------
D--------------5-------5---------------4-------4---------
A--------------------------------------------------------
E--------------------------------------------------------

Estrofas:

Iba andando en el camino del desierto
de Zulu
hacia el norte del real.
Iba buscando entre cactús que iluminan
con su luz,
que iluminan la verdad. 
Oh...no...oh yeah...oh...no, yo te tengo
que encontrar.

Al fin llegamos a la selva en el poblado
de Manaus
en la amazona trópical
ahi arribamos a un santuario y nos recibio
un chaman,
nos tomo en su regazo. 

Estribillo:

Bm               D5                A                G  F#m
Jamas  dejes de amar cuenta el Chaman, el amor es todo-ooo

Bm              D5               A                G  F#m        
Jamas dejes de amar, dejes de soñar, el amor es todo-ooo

Estrofas:

Y ya en medio de la selva
entre los ritos del chaman
yo te empece a mirar
y comenzamos a reir
y juntos comenzamos a soñar
nana...nana. 

Estribillo:

Bm               D5                A                G  F#m
Jamas  dejes de amar cuenta el Chaman, el amor es todo-ooo

Bm              D5               A                G  F#m        
Jamas dejes de amar, dejes de soñar, el amor es todo-ooo


Punteo completo:

Ligados: Lg
Slide  : Sl
Vibrato: T

e--7-10-7--7-------------------------------------------
B------------10-7--------------------------------------
G-----------------9-7-----7-7-8-9--7-9--4--7-9--4------
D---------------------9-7------------------------------
A------------------------------------------------------
E------------------------------------------------------

e----------------------10------------------------------
B----------------10----------10------------------------
G-7-9-9-Sl-11-11----11----11----9--------12-10---------
D----------------------------------Lg-11-------11-9-11-
A------------------------------------------------------
E------------------------------------------------------

e------------------------------------------5-5--5-5----
B--12-10---------12-10---------------------7-7--7-7----
G--------11-9-11-------11-9----------------7-7--7-7----
D---------------------------12-9-----------7-7--7-7----
A--------------------------------12-9--7T--5-5--5-5----
E------------------------------------------5-5--5-5----

e--5-5---5-5---5Sl7-10---------------------------------
B--7-7---9-7-------------------------------------------
G--7-7---7-7-------------------------------------------
D--7-7---7-7-------------------------------------------
A--5-5---5-5-------------------------------------------
E--5-5---5-5-------------------------------------------


Estrofas:

Iba entre flores y el deseo
cubierto de mariposas en la piel
el aura iluminaba el río.

Nuncas dejes de amar, nos decia el chaman
oh...no...oh...yeah...oh...no. 

Estribillo:

Bm               D5                A                G  F#m
Jamas  dejes de amar cuenta el Chaman, el amor es todo-ooo

Bm              D5               A                G  F#m        
Jamas dejes de amar, dejes de soñar, el amor es todo-ooo


Estribillo Final:

      Bm         D5        A        D5          G A
Nunca dejes de amar, amar más, de amar...
      Bm         D5        A        D5          G A
Nunca dejes de soñar, de soñar más, de soñar...
      Bm         D5        A        D5          G A
Nunca dejes de amar, amar más, de amar...
      Bm         D5        A        D5          G A
Nunca dejes de soñar, de soñar más, de soñar...

Fin !

Bueno, espero q les haya gustado y q la hayan disfrutado
tanto cómo yo disfruté haciendola y tmb tocandola.
No sé si tiene errores, para mi está muy bien, por lo menos
para los q no saben mucho les va a alcanzar, luego q los de
más saqn el resto y me lo pasen o lo pongan aquí ! =P
Saludos de Nacho !!!

Fuente original: LaCuerda
Colaborador original: Bonjovito [[email protected]]
Aviso: Este fichero es trabajo propio de su transcriptor y representa su interpretación personal de la canción. El material contenido en esta página es para exclusivo uso privado, por lo que se prohibe su reproducción o retransmisión, así como su uso para fines comerciales.

Califica esta canción


Comentarios en Facebook