Enviado por:
Anonimo

Mana, Cachito (unplugged)

Imprimir
Esta cancion es muy sencilla , cualquier persona la 
puede tocar , son pisadas muy simples , y el solo 
esta regalada , suerte y ojala les guste.Es pura 
balada.

Do:010230
Do/Fa:100230
Fa:112331
sol:334553

Intro : do, do/fa, do, fa ,sol
Verso : do ,do , fa , fa
Precoro: do , mimenor , fa , sol
Coro : do , do , fa , sol


Solo : 1:---5-5-5---2-2---1-1-0--1/3-3/5-5/7-----
       2:---5-5-5---2-2---1-1-0--1/3-3/5-5/7-----
       3:----------------------------------------
       4:----------------------------------------
       5:----------------------------------------
       6:----------------------------------------

       1:------------------------------------------------------
       2:13-12-----13-12--------13-12-----13-12----------------
       3:------12--------12-12--------10--------12-12-10-12-10-9

Segundo solo : 1:-8-8-8---8-8-8---8-8-8---8-7-5-7-
               2:-8-8-8---8-8-8---8-8-8---8-8-8-8-X2
               3:-7-7-7---7-7-7---7-7-7-----------

Asi es toda la cancion.

Esta cancion se la dedica a una chava muy especial para mi.
Mariana te la dedico con todo mi corazon.

Fuente original: LaCuerda
Colaborador original: david [[email protected]]
Aviso: Este fichero es trabajo propio de su transcriptor y representa su interpretación personal de la canción. El material contenido en esta página es para exclusivo uso privado, por lo que se prohibe su reproducción o retransmisión, así como su uso para fines comerciales.

Califica esta canción


Comentarios en Facebook