Enviado por:
Anonimo

Mana, Cachito

Intro:
                            C-C*-C   
    e|----------------------|---|   
    B|----------------------|---|   
    G|----------------------|---|   
    D|-2-3-2----------------|---|   
    A|-------5-3-2------2-5-3~--|   
    E|-------------3--3---------|   
       F       G    C-C*-C     F       G
    e|----1----3--|         e|----1----3--|
    B|---2---3----|         B|---2---3----|
    G|--3---------|         G|--3---------|
    D|------------|         D|------------|
    A|------------|         A|------------|
    E|------------|         E|------------|

    SOLO:
        C               F                G            C 
    e|--5-5-5-3-3-1-1-0-1-------3-----5------7~~---8--7--|
    B|--6-6-6-5-5-3-3-1-3---3/5---5/6---6/8--------------|
    G|---------------------------------------------------|
    D|---------------------------------------------------|
    A|---------------------------------------------------|
    E|---------------------------------------------------|
                F         G     C
    e|--8-7-3-0---8-7-1---8-8-7-5-3-1-0--|
    B|--8-8-5-1---8-8-3---8-8-8-8-5-3-1--|
    G|-----------------------------------|
    D|-----------------------------------|
    A|-----------------------------------|
    E|-----------------------------------|
    C   F   C   F   G



        C
    e|--8-8-8-8-8--8-8-8-8--8-8-8-8-8-8--8-7-5-7--|  X2 
    B|--8-8-8-8-8--8-8-8-8--8-8-8-8-8-8--8-8-8-8--|  
    G|--7-7-7-7-7--7-7-7-7--7-7-7-7-7-7-----------|  
    D|--------------------------------------------|  
    A|--------------------------------------------|  
    E|--------------------------------------------| 
    Final
    C-C*-C   F  G   C-C*-C     F         G         C
                            e|-|---------|---------0--|
                            B|-|---------|---------1--|
                            G|-|---------|---------0--|
                            D|-2-3-2-----|---------2--|
                            A|-------5-3-2-----2-5-3--|
                            E|-------------3-3--------|

Fuente original: LaCuerda
Colaborador original: Raúl Gamboa [[email protected]]
Aviso: Este fichero es trabajo propio de su transcriptor y representa su interpretación personal de la canción. El material contenido en esta página es para exclusivo uso privado, por lo que se prohibe su reproducción o retransmisión, así como su uso para fines comerciales.

Califica esta canción


Comentarios en Facebook