Enviado por:
Anonimo

Mana, Buscandola

Imprimir
Estos son los riffs e intermedios de esta rola, si encuentran algun
error, no duden en avisarme para hecharle mas ganas y sacarla mejor,
aunque yo creo que se oye bien.

El ritmo va 2 ragueos hacia abajo, uno arriba y otro abajo.


Intro : 
G   C   D   C   G   C   D   C

(G C D)
Conecto un avion para buscarte,
pues te me escapaste,
Europa, Asia y el Oriente, donde?	
en eso un secuestro al avion,
ah, que loca situacion,
nos dirigimos hacia a Cuba al reventon.

Se acompaña con estos acordes: C   D   C   G   C   D   C
1. ------------------|-----------------|------------------|-----------------|
2. --11-9-7----------|----------9-5-7--|--11-9-7----------|--------8-5-7----|
3. ---------9-7-5-7--|--5-5-7-5--------|---------9-7-5-7--|--7-5-7----------|
4. ------------------|-----------------|------------------|-----------------|
5. ------------------|-----------------|------------------|-----------------|
6. ------------------|-----------------|------------------|-----------------|

(G C D)
Me quedo yo parado en Baradero,
en la playa y en el sol,
mujeres, ron y las palmeras,
que quieren embaucar,
pero yo te extraño tanto,
no te puedo olvidar,
y yo tengo que encontrarte,
encontrarte a ti.


      C    D    G    C    D
1. ------------------------|-------------------------------|---------------------|
2. -----------7-7-5---9-7--|------------11-11-9-7-7h9p7----|------------7p5------|
3. --5-5-5h7-5------7------|--7-7-7h9-7-----------------7--|--5-5-5h7-5----------|
4. ------------------------|-------------------------------|---------------------|
5. ------------------------|-------------------------------|---------------------|
6. ------------------------|-------------------------------|---------------------|

       G   Em     C  D 
Te extraño oohhh...
    G   Em  C  D 
Te amo yeahh

CORO:  ( G D - C Em C D – G Em – C D – G Em C D )

Ando buscandola en Japon, (riff 1)
ando buscandola en Nueva York, (riff 2)
ando buscandola en mi cajon.  (riff 3)
Ando buscandola en Cancun,  (riff 1)
ando buscandola en Katmandu, (riff 2)
ando buscandoa en Honolulu. (riff 4)

       G    Em     C  D 
Te extraño oohhh...
    G   Em  C  D 
Te amo yeeiihh

1. ------------------|-----------------|------------------|-----------------|
2. --11-9-7----------|----------9-5-7--|--11-9-7----------|--------8-5-7----|
3. ---------9-7-5-7--|--5-5-7-5--------|---------9-7-5-7--|--7-5-7----------|
4. ------------------|-----------------|------------------|-----------------|
5. ------------------|-----------------|------------------|-----------------|
6. ------------------|-----------------|------------------|-----------------|


(G C D)
Llegando a Italia, en la estacion,
con un kiwi la mire,
por los canales de Venecia, la persecucion,
no me ha visto, no se ha enterado,
de mi desesperacion,
de repente esta gondola, se hundio.

       C    D    G    C    D
1. ------------------------|-------------------------------|---------------------|
2. -----------7-7-5---9-7--|------------11-11-9-7-7h9p7----|------------7p5------|
3. --5-5-5h7-5------7------|--7-7-7h9-7-----------------7--|--5-5-5h7-5----------|
4. ------------------------|-------------------------------|---------------------|
5. ------------------------|-------------------------------|---------------------|
6. ------------------------|-------------------------------|---------------------|

     G   Em     C  D 
Te extraño oohhh...
    G   Em  C  D 
Te amo yeahh.

CORO:  ( G D - C Em C D – G Em – C D – G Em C D )

Ando buscandola en Japon, (riff 1)
ando buscandola en Nueva York, (riff 2)
ando buscandola en mi cajon.  (riff 3)
Ando buscandola en Cancun,  (riff 1)
ando buscandola en Katmandu, (riff 2)
ando buscandoa en Honolulu. (riff 4)

     G     Em   C  D 
Te quiero oohhh...
       G    Em  C  D 
Te extraño oohhuuu.

( G D - C Em C D – G Em – C D – G Em C D )

La tengo guardada en el corazon, (riff 1)
la tengo clavada en el corazon, (riff 2)
no quiero, ni puedo olvidarla no, no. (riff 3)
Ando buscandola en las fronteras, (riff 1)
ando buscandola en las palmeras.. (riff 2)

( Em C D G Em – C D G Em C – D G)
Ando, ando muy perdido,
no no no no no no no no,
tan perdido.



Riff 1:           Riff 2:                Riff 3:
1. -------    1. --------    1. ----------------------- 
2. --7-7--    2. –-9p7---    2. -7-7-7h9-7-7p5---------  
3. -------    3. --------    3. ---------------7---7b-- 
4. -------    4. --------    4. -----------------7----- 
5. -------    5. --------    5. ----------------------- 
6. -------    6. --------    6. ----------------------- 

          Riff 4:
1. -11-11-119-9-9-97-7-7-9-11-7-9---
2. -----------------------------------
3. -----------------------------------
4. -----------------------------------
5. -----------------------------------
6. -----------------------------------


Pues ahi estuvo la rola. Si quieren tocarla igualita, les recomiendo
escucharla un par de veces para que le agarren bien al ritmo y 
para verificar si los riffs son correctos. Dudas o 
comentarios, ya saben a donde. Suerte!!!

Fuente original: LaCuerda
Colaborador original: german ahumada [[email protected]]
Aviso: Este fichero es trabajo propio de su transcriptor y representa su interpretación personal de la canción. El material contenido en esta página es para exclusivo uso privado, por lo que se prohibe su reproducción o retransmisión, así como su uso para fines comerciales.

Califica esta canción


Comentarios en Facebook