Enviado por:
Anonimo

Mana, Buscandola

Imprimir
Intro
G|-----|
D|-----|
A|-----|
E|-7/1-|

Verso
G|----------------------------|
D|------------------------4-5-|
A|-------2----4---4-4-4-------| x4
E|-3-3-3-----3----------------|

PreCoro
G|-------------------------------------|
D|-------------------------------------|
A|----------2-2--2-2---4--4-4---4-4--2-|
E|-3--3-3------------------------------|

G|----------------------------------|
D|----------------------------------|
A|----------2-2--2-2---4--4-4---4/1-|
E|-3--3-3---------------------------|

[Verso]

Coro
G|--------------------------|
D|--------------------------|
A|-9-9------------------8---| x8
E|-----11----7-7-9----9---9-|

[PreCoro]
[Verso]
[Coro] hasta acabar la cancion.

Fuente original: LaCuerda
Colaborador original: José Ramón Arévalo [[email protected]]
Aviso: Este fichero es trabajo propio de su transcriptor y representa su interpretación personal de la canción. El material contenido en esta página es para exclusivo uso privado, por lo que se prohibe su reproducción o retransmisión, así como su uso para fines comerciales.

Califica esta canción


Comentarios en Facebook