Enviado por:
Anonimo

Mana, Ay Doctor

Pues este tab para bajo esta REFACIL, es un trabajo que saque 
con la ayuda de un compa y pues aqui esta.



Intro:

1. ------------------------------| 
2. ----2-444---2------2-444/7-4--|
3. -4--------5------4------------|X6
4. ------------------------------|

Verso:

1. -------------------------------| 
2. ----2-444---2------2-444/7-4---|
3. -4--------5------4-------------|X18
4. -------------------------------|

Coro:

1. --------------------------------------|  
2. ----222/4-----222/4-------------------| 
3. -----------00--------22-000-2-----2-0-|
4. -22---------------------------22------|

1. --------------------------------------|  
2. ----222/4-----222/4-------------------| 
3. -----------00-------22-0222-2222-2222-|
4. -22-----------------------------------|

Puente:

1. -------------------------|
2. -------------------------| 
3. --------------------2-0--|X4
4. -2222--2222--2222--------|

Solo:
1. ------------------------------| 
2. ----2-444---2------2-444/7-4--|
3. -4--------5------4------------|
4. ------------------------------|..Muchas veces (casi no se oye)

Puente 2:

1. --------------------| 
2. --------------------| 
3. -2--2-0-------------|
4. ---------2-0--------|

1. --------------------------------------|  
2. ----222/4-----222-------222/4----22---| 
3. ------------------2-----------------4-|
4. -22-------22---------22-------22------|

1. -----------------------------------------------|
2. -----------------------------------------------| 
3. -555-55-55-5--222-22-22-2--------------------2-|X3
4. --------------------------222-2-22 2-22-2-22---|

1. -------------|  
2. -------------| 
3. --44444444---|
4. -------------|

Coro

1. --------------------------------------|  
2. ----222/4-----222/4-------------------| 
3. -----------00--------22-000-2-----2-0-|
4. -22---------------------------22------|

1. ---------------------------------------|  
2. ----222/4------222/4-------------------| 
3. -----------00--------22-0222-2222-2222-|
4. -22------------------------------------|

Outro

1. -------------------|  
2. -----2-------------| 
3. -----------22-2-0*-|
4. -22-----22---------|


Dudas o comentarios, a mi mail por favor. Suerte!!!

Fuente original: LaCuerda
Colaborador original: german ahumada [[email protected]]
Aviso: Este fichero es trabajo propio de su transcriptor y representa su interpretación personal de la canción. El material contenido en esta página es para exclusivo uso privado, por lo que se prohibe su reproducción o retransmisión, así como su uso para fines comerciales.

Califica esta canción


Comentarios en Facebook