Enviado por:
Anonimo

Mana, Ay Doctor

Pues esta es mi favorita de Revolucion de Amor, tiene buena letra y 
buenos arreglos, muy al estilo de Mana. Basicamente en los versos se
toca los riffs y no estoy muy seguro acerca de los acordes porque no 
soy de los transcriptores que saca acordes, solo tabs. Bueno, aqui esta:


Riff 1:

1. ---------------|-------------------|
2. ---------------|-------------------|
3. ---------------|-------------------|
4. -----4-4-4-----|-----4-4-4-6/76-4-|
5. -5-7-------5-7-|-5-7---------------|
6. ---------------|-------------------|

Riff 2:

1. ------------------------------|
2. ------------------------------|
3. ------------------------------|
4. -x------------x-x-------------|
5. -x-7-7-7-7/9--x-x-2-5-2/4-2p0-|
6. ------------------------------|

Riff 3:

1. -x-x--x-x--x-x------------|-x-x--x-x--x-x--3---------|
2. -x-x--x-x--x-x--3---3-1-3-|-x-x--x-x--x-x----3---3-1-|
3. -x-x--x-x--x-x----2-------|-x-x--x-x--x-x------2-----|
4. --------------------------|--------------------------|
5. --------------------------|--------------------------|
6. --------------------------|--------------------------|

Riff 4:

1. -------5b-------7b---------5-5---------|
2. -5-3-5----5-3-5----5-5-3-5-----5-3-5b--|
3. ---------------------------------------|
4. ---------------------------------------|
5. ---------------------------------------|
6. ---------------------------------------|

-------------------------------------------------------------------------

Intro:

1. --------------------|----------------------|-----|-14-12-14---14-14-14-| 
2. --------------------|----------------------|-----|-14-12-14---14-14-14-| 
3. ---6----------------|---6-------6-6/76-6~-|-----|-14-13-14---14-14-14-|  
4. –7---7-6-6-6/76-4~-|-7---7-6-6------------|-BIS-|---------------------| 
5. --------------------|----------------------|-----|---------X2----------|
6. --------------------|----------------------|-----|--Distrocion-Ligera--| 

(Riff 1)- F#m E A E

Me ha envenenado... con sus labios, con sus besos, 
alucinado, loco por su desamor,
soy un desastre en la escuela, en la casa y el trabajo, oh yeeh,
no me consuelan ni las pastas, ni la ganya ni el alcohol, noo.

1. --------------------|----------------------| 
2. --------------------|----------------------|
3. ---6----------------|---6-------6-6/76-6~-|  
4. –7---7-6-6-6/7-6-4~-|-7---7-6-6------------|
5. --------------------|----------------------|
6. --------------------|----------------------|

(Riff 1)- F#m E A E

Le dije al doctor: ¿cómo es que se cura esto?
me ha recetado calma y algo de prozac,
me dijo: la terapía cura, pero es mucha la locura,
al amor pudiste entrar, pero no vas a escapar, ehhh.

CORO:

(Riff 2)

F#m     E                         F#m
Ay, doctor... como me duelen sus besos,
 B7              F#m
como me duele el amor,
F#m     E      A         E
Ay, doctor... deme algo por favor,
B7                    F#m
ay, como me duele al amor.

1. --------------------|--------------------| 
2. --------------------|--------------------|
3. ---6----------------|---6-------6-6/7-6~-|  
4. –7---7-6-6-6/7-6-4~-|-7---7-6-6----------|
5. --------------------|--------------------|
6. --------------------|--------------------|

(Riff 3)- F#m E A

Mire doctor que ando alucinado, mire,
mire doctor que ando alucinado, mire,
mire doctor que ando alucinado, mire,
mire, mire.

(Riff 2)

F#m     E                         F#m
Ay, doctor... como me duelen sus besos,
 B7              F#m
como me duele el amor,
F#m     E      A         E
Ay, doctor... deme algo por favor,
B7                    F#m
ay, como me duele al amor.


SOLO:

1. --------------------------------------|
2. --------------------------------------|
3. --------------------------------------|
4. ------4-4-4-----------4-4-4-6/76-4---|
5. --5-7-------5-7---5-7-----------------|
6. --------------------------------------|

1. ------9b-9b-9p7-5-7b-|-5-7-9b-9b-9p7-5-5h7-5b-|-9-9h10-9--|
2. --5-7----------------|------------------------|-----------|
3. ----------------|-------------------|------|
4. ---------------------|------------------------|-----------|
5. ---------------------|------------------------|-----------|
6. ---------------------|------------------------|-----------|

1. –9b-9b-9b-9b///---9-9-7-52--|
2. -----------------------------|
3. ------------------------|
4. -----------------------------|
5. -----------------------------|
6. -----------------------------|

1. -------5b-------7b---------5-5---------|
2. -5-3-5----5-3-5----5-5-3-5-----5-3-5b--|
3. ---------------------------------------|
4. ---------------------------------------|  X2 
5. ---------------------------------------|       
6. ---------------------------------------|

(Riff 4)- G F#m B7

Deme algo mi doctor,
me está mantando esta depresión,
estoy demente por su amor
me está matando la obsesión.

(Riff 2)-

F#m     E                         F#m
Ay, doctor... como me duelen sus besos,
 B7              F#m
como me duele el amor,
F#m     E      A         E
Ay, doctor... deme algo por favor,
B7                    F#m
ay, como me duele al amor.


(Riff 2)- F#m E B7 F#m

Estoy yo muy desolado, estoy alucinado,
estoy perdiendo la razón y tu no tienes compasión,
pero ya no vuelve, pero ya no vuelve.

Deme algo mi doctor, alivianeme todo el dolor
deme algo, deme algo, deme algo, doctor.

Outro- Riff 2

1. ------------------------------|
2. ------------------------------|
3. ------------------------------|
4. -x------------x-x-------------|
5. -x-7-7-7-7/9--x-x-2-5-2/4-2p0-|
6. ------------------------------|.....Fade out


Bueno, ahi estuvo. Dudas o comentarios a mi mail please, recuerden que en
el solo hay que usar el efecto WAH-WAH donde se indica. Saludos a todos
los que me escriben para apoyarme y pedir mas rolas. Suerte!!!

Fuente original: LaCuerda
Colaborador original: german ahumada [[email protected]]
Aviso: Este fichero es trabajo propio de su transcriptor y representa su interpretación personal de la canción. El material contenido en esta página es para exclusivo uso privado, por lo que se prohibe su reproducción o retransmisión, así como su uso para fines comerciales.

Califica esta canción


Comentarios en Facebook