Enviado por:
Anonimo








Mana, Ay Doctor

HOLA ESTA ES LA VERSION ORIGINAL DEL INTRO 
DE LA ROLA.
LES ASEGURO DE QUE SI ESCUCHAN LA CANCIÒN SI LES QUEDA
e-----------------------------
a-----------------------------
d-------------------------4---
g--2---2--1-1--2---1h2p1------
b----2------------------------
e-----------------------------

                                      x2 solo en el intro
e-----------------------------
a-----------------------------
d-----------------------------
g--2---2--1-1-----------------
b----2--------2---2h3p2----2--
e-----------------------------

despues  de  que dice ni la ganyani el alcoholse repite dos veces
se repite dos veces despues  del primer coro.

si tienen po ahi el tab do sog of the wind de santana mandenlo a mi correo

Fuente original: LaCuerda
Colaborador original: victor arrieta [[email protected]]
Aviso: Este fichero es trabajo propio de su transcriptor y representa su interpretación personal de la canción. El material contenido en esta página es para exclusivo uso privado, por lo que se prohibe su reproducción o retransmisión, así como su uso para fines comerciales.

Califica esta canción


Comentarios en Facebook