Enviado por:
Anonimo

Mana, Ay Doctor

QUE ONDA ESPERO KE ESTEN CHIDO AY LES VA ESTE ROLON
DIFRUTENLO YA SABEN CORRECCIONES DUDAS O 
COMENTARIOS ESCRIBANME.CHIDO!!!!!!!!!!!!!!!!!!!!!
                RIFF  1
G---------------------------------------------------2/1
D-------2------4--4--4--4--------2------2--4-4-4-4-----
A---4-------------------------4-------4----------------
E------------------------------------------------------


                RIFF 2

e------------------------------------------------------
B------------------------------------------------------
G------------------------------------------------------
D-11-11-----------------------4--4---------------------
A-9--9-----7-7-7-7-7/9--------2--2------0/2-2-2--0-----
E------------------------------------------------------


               INTRO 

e-------------------------------------------------------
B-------------------------------------------------------
G------6----------------------------6------------6-6/7-6
D---7------7--6-6--6-6/7---6--4--7-----7--6-6-6---------
A-------------------------------------------------------
E-------------------------------------------------------

         LO QUE SIGUE DEL INTRO.

e---14-----12------14-------14------14--------14-------
B---14-----12------14-------14------14--------14-------
G---14-----13------14-------14------14--------14-------


1.INTRO(CON RIFF 1)     2.LO QUE SIGUE DEL INTRO.


         (RIFF 1-Fsostm-E)
Envenenado por sus labios por sus besos
alucinado loco por su desamor.
soy un desastre en la escuela, en la casa y el trabajo.
no me consuelan ni las pastas ni la caña ni el alcohol.   1 y 2(RIFF 3)

               RIFF 3.

e--------14
B--------14----X3 SOLO ESTA PARTE.!!!!!
G--------14
D-11---------------------------------------------------
A-9----------------------------------------------------
E------------------------------------------------------

       (RIFF 1-Fsostm-E)

Le dije al doctor como es que se cura eso
me ha recetado calma y algo de prozar,
me dijo la terapia cura pero es mucha la locura
al amor pudiste entrar pero no vas a escapar.

RIFF 2    Fsostm      E                B         Fsostm
*Ay doctor como me duelen sus besos como me duele el amor

D-----4----2-------------------------------------------
A-----2----0-------------------------------------------
E------------------------------------------------------

Fsostm       E                B               Fsostm     
Ay doctor deme algo porfavor ay como me duele el amor.
Fsostm              E          Fsostm     E
mire  doctor tan alucinado  x3     (CORO)

D              Bm                        Fsostm
Deme algo mi doctor me esta matando esta depresion
D              Bm                            Csost
estoy demente por su amor me esta matando la obscecion.(CORO)

          Fsostm-E-Fsostm-E
Estoy yo muy desolado, estoy alucinado
estoy perdiendo la razon y tu no tienes corazon
pero ya no vuelves ,pero ya no vuelves.
  
          Fsostm-E-B-Fsostm. 
Deme algo mi doctor alivianeme todo el dolor
deme algo deme algo deme algo doctor.   

TERMINA EN RIFF 1 Y 2, Y LOS ACORDES DEL CORO.


ESO FUE TODO ESPERO LES SIRVA ESTA UN POCO COMPLICADA NADA MAS 
ESCUCHENLA Y YA PERO ESCUCHENLA NO LA OIGAN SALE?

SALUDOS A MI PAPA A MI TIO IVAN  A TODA MI BANDA JUARENSE
Y AL GRUPO AXIOMA.ADIOS!!!!!!!!!!!!!!!!!!!!!!!!!!!!!!!!

Fuente original: LaCuerda
Colaborador original: Sergio Sunga Orozco [[email protected]]
Aviso: Este fichero es trabajo propio de su transcriptor y representa su interpretación personal de la canción. El material contenido en esta página es para exclusivo uso privado, por lo que se prohibe su reproducción o retransmisión, así como su uso para fines comerciales.

Califica esta canción


Comentarios en Facebook