Enviado por:
Anonimo








Mana, Ana (unplugged)

Imprimir
Este es el solo más exacto de esta versión Umplugged,
compruebenlo ustedes mismos, eso sí, requiere
rapidez y practica.

¡Suerte!

x: Cuerdas solo golpeadas

  C#m          A
|----------------7/9-9-9---|
|-----------5----7/9-9-9-7-|
|-4/6-6-4-6----------------|
|--------------------------|
|--------------------------|
|--------------------------|

  F#m                                   B
|-7/9--9-11----9-11-12-9-11----9---------------------------------|
|-----------12--------------12---10-9-8-----9--------------------|
|---------------------------------------11----11-9-8------11~-11-|
|----------------------------------------------------11-9--------|
|----------------------------------------------------------------|
|----------------------------------------------------------------|

     C#m                           (A)
|-x-x-9-x-11-x-12-x-12-x-12-12-|
|------------------------------|
|-x-x-6-x--8-x--9-x--9-x--9--9-|   X 2
|------------------------------|
|------------------------------|
|------------------------------|

  F#m                      B
|-14-x-12-x-11-x-9-x-12-x-11-x-9-x-7-x-5-x-4-|
|--------------------------------------------|
|-11-x--9-x--8-x-6-x--9-x--8-x-6-x-4-x-2-x-1-|
|--------------------------------------------|
|--------------------------------------------|
|--------------------------------------------|

Duda, comentario, consulta, estare esperando
en mi mail.
BYE.

Fuente original: LaCuerda
Colaborador original: Abraham Alejandro Estrada Mendoza [[email protected]]
Aviso: Este fichero es trabajo propio de su transcriptor y representa su interpretación personal de la canción. El material contenido en esta página es para exclusivo uso privado, por lo que se prohibe su reproducción o retransmisión, así como su uso para fines comerciales.

Califica esta canción


Comentarios en Facebook