Enviado por: Anonimo
Agrandar Letra
Reducir Letra
Imprimir


Otras Versiones de La Gloria Eres Tu:




Luis Miguel, La Gloria Eres Tu

*************    ESTA ES UNA CORRECCION   ***************
                A LA QUE YA HABIA MANDADO 
                     PORQUE PUSE MAL      
                        UNAS NOTAS        
                                          
***********************************************************

ANTES DE LEER EL TAB DEJENME DECIRLES QUE ESTA TRANSCRIPCION
ES PARA -R E Q U I N T O- NO PARA GUITARRA SI LA QUIEREN TOCAR EN GUITARRA
TENDRAN QUE TRANSCRIBIRLO O SUMARLE 5 TRASTOS A CADA NOTA



[xx]= tremolo.

INTRO.

__
  
_  a||-------9------8------7---5--3---|
_) E||------10------9------8---7--5---|
   C||----8-------7------6------------|
_  G||--9-------8------7--------------|
_) D||--------------------------------|
   A||--------------------------------|
__/


SIGUEN ESTOS ACORDES:


G      -     Gm     -     Dmaj7    -   B7
__           __           __           __
                                      
_  a||--2-   _  a||--1-   _  a||--0-   _  a||--2-
_) E||--3-   _) E||--3-   _) E||--2-   _) E||--2-
   C||--2-      C||--2-      C||--1-      C||--3-
_  G||--0-   _  G||--0-   _  G||--2-   _  G||--2-
_) D||--0-   _) D||--0-   _) D||--0-   _) D||--4-
   A||--0-      A||--0-      A||--0-      A||--2-
__/          __/          __/          __/


LUEGO ESTO:

__
  
_  a||-----14-----|-----13-----|--12--|
_) E||--12----12--|--11----11--|--14--|
   C||--13----13--|--12----12--|--13--|
_  G||------------|------------|------|
_) D||------------|------------|------|
   A||------------|------------|------|
__/

FIN INTRO.

LETRA



ERES MI BIEN.....

LOS ACORDES LOS PUEDEN ENCONTRAR AQUI MISMO LES RECOMIENDO LOS DE
José Antonio Pacheco Miranda
SUENAN MUY BIEN

...SI ALMA MIA LA GLORIA ERES TU....



REQUINTO:

__
  
_  a||------------------------
_) E||----------------8--10---
   C||--9--11--9--11----------
_  G||------------------------
_) D||------------------------
   A||------------------------
__/

__
  
_  a||--7--8--9------7--9----------------7--8--9--10--12--
_) E||-----------10----------[7]--9--10-------------------
   C||----------------------------------------------------
_  G||----------------------------------------------------
_) D||----------------------------------------------------
   A||----------------------------------------------------
__/

__
  
_  a||--10--12--10--10--9----------9------9p10--9-----------------
_) E||---------------------11--12-----12-----------12-------------
   C||-------------------------------------------------9--9--9----
_  G||------------------------------------------------------------
_) D||------------------------------------------------------------
   A||------------------------------------------------------------
__/

__
  
_  a||-----------------7---
_) E||-----7---------------
   C||--9-----9--8--9------
_  G||---------------------
_) D||---------------------
   A||---------------------
__/

__
  
_  a||-------------------------------------7--8--9---------------
_) E||--10--10h11--9--9--------------9-10------------------------
   C||-------------------11--10--11------------------11--11--11--
_  G||-----------------------------------------------------------
_) D||-----------------------------------------------------------
   A||-----------------------------------------------------------
__/

__
  
_  a||------------------9--------------
_) E||--7--9--7------7-----------------
   C||-----------10--------10--10--10--
_  G||---------------------------------
_) D||---------------------------------
   A||---------------------------------
__/

__
  
_  a||--9-9--7-7--5h7-----5--7------------
_) E||-----------------9------------------
   C||---------------------------9--9--9--
_  G||------------------------------------
_) D||------------------------------------
   A||------------------------------------
__/

__
  
_  a||---------------------
_) E||-----7-----------8---
   C||--9-----9--8--9------
_  G||---------------------
_) D||---------------------
   A||---------------------
__/

__
  
_  a||---------------------------------------------7--8--9---|
_) E||--------------------------------7--7--9--10------------|
   C||------------6--6--8--8--10--10-------------------------|
_  G||------9--9---------------------------------------------|
_) D||--10---------------------------------------------------|
   A||-------------------------------------------------------|
__/

FIN REQUINTO.


OUTTRO:
__
  
_  a||-------------7--8--9--10--12--
_) E||-[7]--9--10-------------------
   C||------------------------------
_  G||------------------------------
_) D||------------------------------
   A||------------------------------
__/

__
  
_  a||--10--10---6--6--------------------------------|--12--|
_) E||--12--12---8--8--8--8--6--6--------------------|--14--|
   C||-----------------9--9--7--7---9---9--7/9----9--|--13--|
_  G||-----------------------------11--11--9/11--11--|------|
_) D||-----------------------------------------------|------|
   A||-----------------------------------------------|------|
__/



SUERTE...

Fuente original: LaCuerda
Colaborador original: E||/-||[ ]
Aviso: Este fichero es trabajo propio de su transcriptor y representa su interpretación personal de la canción. El material contenido en esta página es para exclusivo uso privado, por lo que se prohibe su reproducción o retransmisión, así como su uso para fines comerciales.

Califica esta canción


Comentarios en Facebook