Enviado por:
Anonimo

Luis Miguel, La Bikina

Este tab es para guitarra NO para requinto toquenla
con una guitarra afinada, despues de memorizarla
es mas facil darle el ritmo correcto.

e---10-8-7-10--8-7-5-3-75--7-5-3-7-5-3-7-3-1-----------
B------------------------------------------------------
G--7---------------------------------------------------
D------------------------------------------------------
A------------------------------------------------------
E------------------------------------------------------

e--0-0-0-2-0-2-3-3--7-5-3-7-5-3-7-5-3-7-5-3-5----------
B------------------------------------------------------
G------------------------------------------------------
D------------------------------------------------------
A------------------------------------------------------
E------------------------------------------------------


e--10-10-8-7-10--8-7-5-3-7-5--7-5-3-7-5-3-7-3-1--------
B------------------------------------------------------
G------------------------------------------------------
D------------------------------------------------------
A------------------------------------------------------
E------------------------------------------------------

e--0-0-0-2-0-2-3-5-7-8--7-5-3-7-5-3-5-3-2-5-3-2-3------
B------------------------------------------------------
G------------------------------------------------------
D------------------------------------------------------
A------------------------------------------------------
E------------------------------------------------------

e--3-5-5-6--8-8-8-5-8-10--3-5-5-6--3-3-3-2-3-5---------
B------------------------------------------------------
G------------------------------------------------------
D------------------------------------------------------
A------------------------------------------------------
E------------------------------------------------------

Fuente original: LaCuerda
Colaborador original: LUIS ALVERDI [luisalverdi@hotmail.com]
Aviso: Este fichero es trabajo propio de su transcriptor y representa su interpretación personal de la canción. El material contenido en esta página es para exclusivo uso privado, por lo que se prohibe su reproducción o retransmisión, así como su uso para fines comerciales.

Califica esta canción


Comentarios en Facebook