Enviado por:
Anonimo

La Ley, The Corridor

Imprimir
este es el tab de la cancion,
el otro no esta mal pero se escucha mejor asi
espero que les sirva de algo.

en realidad es con teclado pero con guitarra
se escucha bien


e--------------------------------------------
b--------------------------------------------
g--------------------------------------------
d-------8------------10----------------12----
a-----8---8-------10----10----------12-------
e---6-----------8----------------10----------



e--------------------------------------------
b--------------------------------------------
g--------------------------------------------
d-------8------------10----------------12----
a-----8---8-------10----10----------12-------
e---6-----------8----------------10----------


esto se sigue repitiendo mientras la otra guitarra
hace esto


e--------------------------------------------
b--------------------------------------------
g---5/7-----7/9------9/10--9/7--7--5-5/7-----
d--------------------------------------------
a--------------------------------------------
e--------------------------------------------


dudas, sugerecias, comentarios o mentadas, jejejeje
a mi correo.

Fuente original: LaCuerda
Colaborador original: Omar Guerrero Cuautle [[email protected]]
Aviso: Este fichero es trabajo propio de su transcriptor y representa su interpretación personal de la canción. El material contenido en esta página es para exclusivo uso privado, por lo que se prohibe su reproducción o retransmisión, así como su uso para fines comerciales.

Califica esta canción


Comentarios en Facebook