Enviado por:
Anonimo

La Ley, Tejedores De Ilusion

Imprimir
Hola, amigos aqui les va esta transcripcion de bajo
que está muy buena:

Intro:

   G  C  F       
|-----------| 
|--------3--|
|-----3-----| 
|--3--------| 

   G             C           F
|-------------------------------------------|
|-----555---5------------2-2h3--0-2h3-2-0---|
|---------5---5--3--333-------------------3-|
|--3----------------------------------------|

Versos:

   A          C          D
|-------------------------------------------|
|--7-7-7-7-7--5-5-5-5-5--4-4-4-4-4----------|
|---------------------------------5-5-5-5-5-|
|-------------------------------------------|

Intermedio:

   G  C  F       
|-----------| 
|--------3--|
|-----3-----| 
|--3--------| 

Coro:

   G             C           F
|-------------------------------------------|
|-----555---5------------2-2h3--0-2h3-2-0---|
|---------5---5--3--333-------------------3-|
|--3----------------------------------------|

Termina igual que los versos, nada mas que decir que
chaooooo. Nos vemos.

Fuente original: LaCuerda
Colaborador original: Eduardo [[email protected]]
Aviso: Este fichero es trabajo propio de su transcriptor y representa su interpretación personal de la canción. El material contenido en esta página es para exclusivo uso privado, por lo que se prohibe su reproducción o retransmisión, así como su uso para fines comerciales.

Califica esta canción


Comentarios en Facebook