Enviado por:
Anonimo

La Ley, Surazul

Imprimir
Esta es una de las mejores rolas de este superdisco de
la ley, espero y les sea de su agrado y dice
mas o menos así.
Intro:
			
  0:00     C               Am                   C        F
e|--------------|------------3/5/8—3/5/8-|----------|-------|
b|--------------|------------------------|----------|-------|
g|--------------|------------------------|----------|-------|
D|--------0-0h2-|--0h2-0-----------------|----------|-------|
A|----0-3-------|--------3-0-------------|----------|-------|
E|--3-----------|------------------------|--7~--7/3-|-0-3-3/5
 0:16     C             Am             C              F
e|--------------|----------------|-------------|-------------
b|--------------|----------------|-------------|-------------
g|-----5-7-7/9~-|--7br—5---------|--5-4h5p4----|-------------
D|--5h7---------|-----------5/7~-|----------7-5|------5—--5/7
A|--------------|----------------|-------------|--5h7---7----
E|--------------|----------------|-------------|-------------
 0:32      C
e|------------|
b|------------|
g|--5—5////-0-|
D|------------|
A|------------|
E|------------|

C     
Solo sueña y dime
    Am
Si todo esto es real
C
Solo sueña y dime
     F
Si podremos llegar
G                   Am
Juntos aunque la distancia nos deje ver
F                     G
Que el amor es algo maa-aa aaaaaaas

C
Solo sueña y dime
          Am     (Rifft 1)
Si hay posibilidad
C
Solo sueña y dime
      F
Que jamás cambiaras

G                      Am
Aunque algunas circunstancias no dejen ver
F                      G            F
Que es posible proyectaa-aa-aaaaaarse

                C
Me veras en el suuuuuuur
F                          C
Donde el mar es triste y azuuuuuuuul
G                   Am                (Rifft 2)
Juntos aunque la distancia nos deje ver
F                    G
Que el amor es algo mas
(El solo se acompaña con las notas anteriores C,Am,C,F,G
es cuestion de acoplarlas al solo)

Solo:
  2:12
e|---------------------------------------------------|
b|---------------------------------------------------|
g|---------------------------------------------------|
D|------10-10//-----10-10/9-b~~--10h12-10------------|
A|--/10---------/10-----------------------10/12///---|
E|---------------------------------------------------| 
  2:20-2:21                        2:27-2:28           ( x2)
e|-------------------------------|---------------------x---x|
b|----10-8—-10-8—-10-8-----------|------------7/9/7----x-7-x|
g|--9------9-----9-----9~-7br----|--------/7—-7/9/7-/7-x-7bx|
D|----------------------------10~|--10-10--------------x---x|
A|-------------------------------|---------------------x---x|
E|-------------------------------|---------------------x---x|
 2:36
e|------------------------------------------------------|
b|--12br-10—15brp13-15—15brp13------------15p13---------|
g|-----------------------------15p13-11~--------15------|
D|-------------------------------------------------16~--|
A|------------------------------------------------------|
E|------------------------------------------------------|
 2:43
e|--------------------------------------|
b|--------------------------------------|
g|--14p12-------------------------------|
D|-------14-14p12----------12-12/14~~~~-|
A|----------------12-14-15--------------|
E|--------------------------------------|

C
Solo sueña y dime
      Am      (Rifft 3)
Seguiremos acá
C
Solo sueña y dime
        F
Con esfuerzo avanzaaaaar
G                    Am                (Rifft 4)
Juntos aunque la impaciencia nos deje ver
F                    G
Que es difícil perduraa-aa-aaaaaar

F               C
Me veras en el suuuuuuuuuuur
F                          C
Donde el mar es triste y azuuuuuuuuul
 F               C
Me veras en el sur ohoohhh
F                          C      F
Donde el mar es triste y azuuuuuuul
C
Surazul ohhohh
F
Surazuuuuuuul
C
Ahaa hahahah hahaa

Sur azuuuuu uuuu uul
Aaah aahahahha hahahahah ahh aha ha
Surazul
Surazul
Aaaaahhhhh ahh ahaha ha a aaaaha aa ahaa haaa ha

Y así continua hasta que hace Fade out la rola en F y C

Vamos con los pequeños arreglos que le dan feeling a esta rola.

 Rifft 1             Rifft 2            Riff 3
      Am               Am                  Am
e|-----------|   e|------7-5--|     e|-----------|             
b|--3/5/3----|   b|---5-------|     b|--6p5------|
g|--------5~-|   g|--7--------|     g|------6-0--|
D|-----------|   D|-----------|     D|-----------|
A|-----------|   A|-----------|     A|-----------|
E|-----------|   E|-----------|     E|-----------|


     Rifft 4
        Am
e|---------------|
b|--12br-10-10~--|
g|---------------|
D|---------------|
A|---------------|
E|---------------|

Esa es toda la rola espero y les guste me faltaron algunos arreglos pero casi 
no se escuchan y si se escuchan estan en la escala
 de la, asi que ya saben que hacer para sacarlos.
 solo una ultima aclaración, la guitarra eléctrica maneja todo el tiempo cejillas,
 y la guitarra electroacústica, utiliza las notas comunes sin cejilla, excepto F, 
tóquenla y espero les haya gustado y ténganle mucho feeling asi como mi compadre
 Betito Cuevas por que es un rolon 
!!!! Disfrútenla!!!!.

Traducción de mis garabatos
~ = Dejar vibrando la nota
b = Hacer un Full
r = Bajar la cuerda del full
/ = Deslizar el dedo hacia los trastes de arriba ejm: 9/////0
Pasa por el 8,7,6,5,4,3,2,1 hasta dejar la nota al         aire.
Otra nota en el solo en la parte del pricipio donde esta esto

--10/9-b~~
“Significa que primero deslizas el dedo al 9 (10/9)
“Después esperas, luego realizas un Full (b)
“Y al ultimo Vibras la cuerda (~~)

Espero que les haya quedado clara esta Tab, el solo esta perfecto, 5 años de guitarrista lo 
respaldan honestamente es una de las mejores rolas de libertad
Espero y les guste, cualquier duda no duden en escribir. por cierto esta va por ti Vicky

Si les gusto mi tab visiten mis otras colaboraciones

Shakira: Te aviso te anuncio (tab)
Nicho Hinojosa: Te perdono(Tab)
Luis Miguel: Hasta que vuelvas(Tab)
Chayanne: Y tu te vas(Tab)

Y próximamente Amate y Salvate con arreglos y solo de lujo solo que estoy trabajando en ella.

Y si no les gusto pues “Ni hablar” 
Hechenle ganas y les mando un super abrazo

Carlos…
=)

Fuente original: LaCuerda
Colaborador original: Carlos Legorreta Fernandez [[email protected]]
Aviso: Este fichero es trabajo propio de su transcriptor y representa su interpretación personal de la canción. El material contenido en esta página es para exclusivo uso privado, por lo que se prohibe su reproducción o retransmisión, así como su uso para fines comerciales.

Califica esta canción


Comentarios en Facebook