Enviado por:
Anonimo

La Ley, Si Tu No Estas Aqui

Imprimir
Intro:D-F#m-G-A (X4)

D      F#m         G
Espera Sólo Un Poco
            A      D-F#m-G-A
Que Pronto Llegaré
D             F#m    G
Mi Vida Es Incompleta
            A      D-F#m-G-A
Si Tú No Estás Aquí
D           F#m      G
Y Cuando Acabe El Día
       A      D-F#m-G-A
Estaré A Tu Lado.

D-F#m-G-A (X4)

D       F#m        G
Espera Sólo Un Poco
            A      D-F#m-G-A
Que Pronto Llegaré
D            F#m     G
Mi Vida Es Incompleta
         A        D-F#m-G
Si Tú No Estás Aquí
         A        D-F#m-G
Si Tú No Estás Aquí
         A        D-F#m-G
Si Tú No Estás Aquí
         A        D-F#m-G
Si Tú No Estás Aquí.

Final:

6|--------------------|--------------------------------
5|-4------------------|--------------------------------
4|---0-0-2-4-5-5/7-7--|--------------------------------
3|--------------------|--------------------------------
2|--------------------|-10-----------------------------
1|--------------------|----10-12-14/15-14-10-10/12-10--

Solo:

6|-4---------------|-----------------|-----------------------------
5|---0-2-4-4-5-5/7-|-5/7-7-7-5-5-4-4-|-4-4-5/4---------------------
4|-----------------|-----------------|-----------------------------
3|-----------------|-----------------|-----------------------------
2|-----------------|-----------------|----------7-7-7/8-7-3-3/5-3--
1|-----------------|-----------------|-----------------------------

6|-----------|-------------------------|--------------------------------------
5|-----------|-------------------------|--------------------------------------
4|-----------|-------------------------|--------------------------------------
3|-----------|-------------------------|--------------------------------------
2|-3/5-3-3-3-|-10-------------------10-|-10----10----------10-10--------------
1|-----------|----10-12-14/15-14-10----|----10----10-10-10-------10-10/12-10--

6|-------------------------|-------|--------------------------
5|-------------------------|-------|--------------------------
4|-------------------------|-------|--------------------------
3|-------------------------|-------|--------------------------
2|-10-------------------10-|-------|--------------------------
1|----10-12-14/15-14-10----|-5/7-5-|-14-14/15--17--14/15--17--


ESTA ES LA VERSION 

Fuente original: LaCuerda
Colaborador original: Joshua [[email protected]]
Aviso: Este fichero es trabajo propio de su transcriptor y representa su interpretación personal de la canción. El material contenido en esta página es para exclusivo uso privado, por lo que se prohibe su reproducción o retransmisión, así como su uso para fines comerciales.

Califica esta canción


Comentarios en Facebook