Enviado por:
Anonimo

La Ley, Si Tu No Estas Aqui

Imprimir
Esta es la intro y además toca esto durante la estrofa

  Re  Fa#  Sol  La Re  Fa# Sol La
E-----------------------------------02----------------     
B-320-------32--02-320-----32--02-23--3--------------- 
G-----2----------------2------------------------------    
D------44---------------44----------------------------
A-----------------------------------------------------
E-----------------------------------------------------




D  F#m  G  A  (x  2)

D      F#m               G
Espera Sólo Un Poco,
              A        D   F#m  G  A
Que Pronto Llegaré
D             F#m           G
Mi Vida Es Incompleta
          A            D   F#m  G  A
Si Tú No Estás Aquí
D           F#m            G
Y Cuando Acabe El Día
       A      D      F#m  G  A
Estaré A Tu Lado.

D  F#m  G  A   (x 4)   A

D       F#m             G
Espera Sólo Un Poco
              A         D  F#m  G  A
Que Pronto Llegaré
D            F#m         G
Mi Vida Es Incompleta
         A            D  F#m  G
Si Tú No Estás Aquí
         A            D  F#m  G
Si Tú No Estás Aquí
         A            D  F#m  G
Si Tú No Estás Aquí
         A            D  F#m  G
Si Tú No Estás Aquí.

D
Este es el solo

E-----------------------------232---------------------
B--------------------------------3-3/5-3--2/3-22/0-0--
G---------------------------------------------------2-
D-0044577-77/5-55/4-44-4h5h4--------------------------
A-----------------------------------------------------
E-----------------------------------------------------


E-----14-15-14----------------------------------------
B---15--------15-----15--15-15--15--17-15-------------
G-14------------14-14--14-----14--14------------------
D-----------------------------------------------------
A-----------------------------------------------------
E-----------------------------------------------------


E-----14-15-14-------------14-14-15-17-14-14-15-17----
B---15--------15--------------------------------------
G-14------------14-14/16-14---------------------------
D-----------------------------------------------------
A-----------------------------------------------------
E-----------------------------------------------------


E---02------------------------------------------------
B-23--3-----------------------------------------------
G-----------------------------------------------------
D-----------------------------------------------------
A-----------------------------------------------------
E-----------------------------------------------------



esta canción se la dedico a Marcela, 
la mujer que robó mi corazón
te amo Marcela

Fuente original: LaCuerda
Colaborador original: Marcelo Alvarez [[email protected]]
Aviso: Este fichero es trabajo propio de su transcriptor y representa su interpretación personal de la canción. El material contenido en esta página es para exclusivo uso privado, por lo que se prohibe su reproducción o retransmisión, así como su uso para fines comerciales.

Califica esta canción


Comentarios en Facebook