Enviado por:
Anonimo

La Ley, Siempre

Imprimir
Particularmente, èsta es mi rola favorita de la ley; porque además de tener una bellísima
parte de guitarra, la voz melodiosa de Beto Cuevas y una batería subliminal; tiene un 
significado especial para mí. Esta rola me hace recordar aquella noche que pasè junto a 
mi enamorada, solos donde nos demostramos cuanto nos deseábamos y nos queríamos; y donde
nos dimos cuenta que no importaba la opinión de nadie, mientras nos tuvieramos el uno al otro.
Para mi hermosa, amada y odiada Nadya (mi Crazy Beautiful o Hermosa locura); esta rola va 
para tí y espero algún día vuelvas a estar junto a mí, una vez más y siempre...


Introducción: 

Siempre es tiempo de partir...
(riff intro) (acordes y punteos)
|--2--3---2-------2--------2--3--2-------------------------|
|--3--3---3-----3---3------3--3--3-------------------------|
|--4--0---2--2--------2----4--0--2---2-2s4-4b--------------|
|--4--0---0----------------4--0--0-------------------------|
|--2--2---0----------------2--2--0-------------------------|
|--2--3--------------------2--3----------------------------|


Dentro de mí...sueño con tocar el cielo
(riff 1a)
|---------------------------------------------|
|---------------------------------------------|
|---12b11v--11v11v11v-11v11v--11v-11v---------|
|---------------------------------------------|(x2)
|---------------------------------------------|
|---------------------------------------------|

(riff 1b) 
|-------------------------------------|
|-------------------------------------|
|--14-14-14s16v-16v--14-14-14s16v-----|
|-------------------------------------|
|-------------------------------------|
|-------------------------------------|

(La segunda vez se repite la primera parte y se cambia la segunda
por este riff)

(riff 1c)
|------------------------------------------------------------------|
|------------------------------------------------------------------|
|--11-11-11-11-12-12-12-12-12-14-14-14-14-14-16-16-16-16-16-16-----|
|------------------------------------------------------------------|
|------------------------------------------------------------------|
|------------------------------------------------------------------|


(CORO)
siempre es tiempo de partir

(Aquí estoy poniendo una x entre parentesis donde deben tocar muchas veces la misma nota
 deben sacarla al oído porque gastaría mucho espacio en poner la cantidad exacta;
las dos equis son cantidades distintas por si acaso)


(riff 2a)
|-----------------------------------------------------|
|-----------------------------------------------------|
|-11s14-14-14s11-11v-11(p.m)-11(p.m)-11(p.m)-11-11-11-| (x2)
|-----------------------------------------------------|
|-----------------------------------------------------|
|-----------------------------------------------------|

(riff 2b)
|-----------------------------------------------|
|-----------------------------------------------|
|11s16-16(x)-16s14-14-14s12-12(x)-12s11-11------| (x2)(osea dos veces)
|-----------------------------------------------|
|-----------------------------------------------|
|-----------------------------------------------|


(SOLO)
la primera va sola en la segunda va sobre la parte de
Don`t be sad and lonely
|-----------------------------------------------------|
|-----------------------------------------------------|
|-14s16-14--------------------------------------------|
|-----------14-12-11-9-11-12-11bv------9bv-9-9bv------|(x2)
|-----------------------------------------------------|
|-----------------------------------------------------|


don`t be sad  (riff intro)
|--2--3---2-------2--------2--3--2-------------------------|
|--3--3---3-----3---3------3--3--3-------------------------|
|--4--0---2--2--------2----4--0--2---2-2s4-4b--------------|
|--4--0---0----------------4--0--0-------------------------|
|--2--2---0----------------2--2--0-------------------------|
|--2--3--------------------2--3----------------------------|


*a partir de aquí se repiten los riffs una vez más y el coro unas cuantas veces más y 
termina con el Bm y G sonando hasta que se apagan



Aquí va la letra y  los acordes 

                     		SIEMPRE
                      		(La Ley)

(RIFF INTRO)


  Bm          G        D
Siempre es tiempo de partir
Bm      G        D
Siempre hay una razon

          Em         G              A
Dentro de mí, Sueño con tocar el cielo
         Em          G              A
Con Suavidad  Despertar cuando te veo

  Bm          G        D
Siempre es tiempo de partir
Bm      G        D
Siempre hay una razon

        Em      G              A
Buscandote dejare el futuro atrás
       Em           G          A
Fugándonos en un tiempo sin lugar

  Bm          G        D
Siempre es tiempo de partir
Bm      G        D
Siempre hay una razon

       Em         G           A
Mirandote te destruyes en mi vida
       Em         G               A
Mi corazon cambiará el color del día

Cadd9
En ti...
(SOLO)

(ACORDES  AL SOLO, PRIMERA PARTE) 
Cadd9   Cm  G

Cadd9     Cm         G 
Don`t be sad and lonely
          D
there`s a whole life waiting out your door

(RIFF INTRO)
Don`t be sad

        Em       G             A
Convertire cada lágrima en ceniza
         Em         G           A
Que soplare con la luz de tu Sonrisa

  Bm          G        D
Siempre es tiempo de partir
Bm      G        D
Siempre hay una razon

  Bm          G        D
Siempre es tiempo de partir
Bm      G        D
Cuz everytime is time to go.


Cadd9  (032033)



Notas finales:
* Esta rola necesita de dos guitarristas(uno para punteos y otro para acordes) si quieren
 que les quede como anillo al dedo; si quieren que les salga bien con un solo guitarrista,
 solo toquen la parte de los punteos con bastante ganas y de vez en cuando funkenle algunos
 acordes por ahi
* La rola está en el disco de la banda sonora de Crazy Beautiful 
* El guitarrista le mete varios efectos a los punteos; no se bien cuales son pero creo que usa 
  los siguientes:
   -envelop filter (para el tono misterioso)
   -chorus (con frecuencia grave)
   -delay (con repetició un tanto corta, no tanto)
   -distortion (creo que la usan pero bien suave)
* Suena bien con efectos o sin efectos pero si tan solo tienen el distorsionador pueden 
  ponerlo con poca distorsion y meterle bastante vibrato a las notas para que quede igual


Otras cosas y agradecimientos:
* Gracias por aguantar mi cursi intro (se que a más de uno le habrá provocado nauseas) pero
  es que tenía que decirlo; además creo que vale la pena por la tabulación de la rola.

* Si alguien tiene el solo de ALWAYS o de COMO YO NADIE TE HA AMADO de BON JOVI por favor;
  mandarlos a mi mail ([email protected])

*Si alguien tiene los acordes de la canción VIRGEN de 6 Voltios, tambièn pude mandarlos a mi mail 
 o publicarlos en ATAME.

*Un saludo a mi prima Janet (te quiero mucho) para que despuès no diga que no le escribo; aquí
 te envío un saludo público para que lo leas tú y los millones que visitan ATAME

* ¡KEEP ON ROLLIN! ¡PUNK KIDZ!

Fuente original: LaCuerda
Colaborador original: Heat [[email protected]]
Aviso: Este fichero es trabajo propio de su transcriptor y representa su interpretación personal de la canción. El material contenido en esta página es para exclusivo uso privado, por lo que se prohibe su reproducción o retransmisión, así como su uso para fines comerciales.

Califica esta canción


Comentarios en Facebook