Enviado por:
Anonimo

La Ley, Mi Ley

Imprimir
esta cancion la dedico a todos aquellos amigos y amigas
que han perdido algo especial en su vida

Intro: Am, C

Am

E---------------------------------------------------|
A-0-------------------------------------------------|
D---------------------------------------------------|
g-----2---------2-----------2------------2----------|
b--------1----------1------------1-----------1------|
e------------0------------------------0-------------|

C

E---------------------------------------------------|
A---3-----------------------------------------------|
D---------------------------------------------------|
g-----0----------0---------0------------------------|
b--------1----------1---------1---------------------|
e------------0------------------0-------------------|




Intro: Am - C

Am
Latidos que enmudecen
                               C   G
Proclaman el silencio de mi ley
Am
Ya nada me ilumina
                                 C   G
Se cierran las ventanas por mi ley

Am                              F
Y aunque siempre haya que persistir
Am                   Em
Me es difícil resistir

Am        
Sirenas que ensordecen
Am                         C      G
Anuncian la llegada de mi ley

Am                 
Los niños se resignan
Am                          C    G
La noche fría cala por mi ley


E-----------------------------------|
A-----------------------------------|
D---2-------------------------------|
g------2----------------------------|
b----------0-----1-----3------------|
e-----------------------------------|

Am                             F
Y aunque intente pretender no ver

E-----------------------------------|
A-----------------------------------|
D-----------------------------------|
g------2----------------------------|
b----------0-----1------------------|
e-----------------------------------|

Am                  Em
Lamentado estoy aquí

Am           F
Horas y horas
               G
Sin poder gritar

A
Por mas que trato 
Em           G
Más me cuesta
A                
Por mas que trato
Em           G
Mas me cuesta
A
Mas que trato
Em               G
Mas me cuesta hoy


E-----------------------------------|
A-----------------------------------|
D---2-------------------------------|
g------2----------------------------|
b----------0-----1-----3------------|
e-----------------------------------|


Am
Legados de tristeza
                              C    G
Dejaron los vestigios de mi ley

E-----------------------------------|
A-----------------------------------|
D---2-------------------------------|
g------2----------------------------|
b----------0-----1-----3------------|
e-----------------------------------|


Am                         F
Y ahora solo espero construir
Am                   Em
La confianza que perdí

Am          F
Horas y horas
               G
Sin poder gritar

A
Por mas que trato 
Em           G
Más me cuesta
A                
Por mas que trato
Em           G
Mas me cuesta
A
Mas que trato
Em               G
Mas me cuesta hoy


A
Por mas que trato 
Em           G
Más me cuesta
A                
Por mas que trato
Em           G
Mas me cuesta
A
Mas que trato
Em               G
Mas me cuesta hoy

Fuente original: LaCuerda
Colaborador original: Alfredo Ramos Lezama [[email protected]]
Aviso: Este fichero es trabajo propio de su transcriptor y representa su interpretación personal de la canción. El material contenido en esta página es para exclusivo uso privado, por lo que se prohibe su reproducción o retransmisión, así como su uso para fines comerciales.

Califica esta canción


Comentarios en Facebook