Enviado por:
Anonimo

La Ley, Mentira (unplugged)

Esta rola tiene un bajo my facil solo hay que agarrar
bien los tiempos...

 Mentira...  ( Todas las estrofas y solo de acustica )
    Am         C            G   
G|------------|------------|------------|
D|------------|------------|------------|
A|--00----00--|3-------3-2-|--------5---|
E|-----0h3---3|------------|3----3------|

 Amor...
  E1 ( G )     E2 ( A )     E3 ( B )        
G|------------|------------|---------9s4|
D|------------|------------|-----9-11---|
A|------------|5--5--5--5--|-7-11-------|
E|3--3--3--3--|------------|------------|

 Coro ( Mi corazon... )
  E4(C) E3(B)  E2(A) E3(B)  E4(C) E3(B)  E
G|------------|------------|------------|------------|
D|------------|------------|------------|-------2----|
A|10----9--9--|7--7---9--9-|10-10--9--9-|------------|
E|------------|------------|------------|0-----------|

 Ultimas dos vueltas del coro...
  E4 ( c )     E3 ( B )     E2 ( A )     E3 ( B )
G|------------|------------|------------|------------|
D|------10----|------9-----|-----7------|------9-----|
A|---10----10-|---9--------|---7---7----|---9--------|
E|8-----------|7-----------|5-----------|7-----------|

  E4 ( C )     E3 ( B )     E            E4 ( C ) 
G|------------|------------|------------|------------|
D|------10----|------9-----|------------|------10----|
A|---10----10-|---9--------|------------|---10----10-|
E|8-----------|7-----------|0----0----0-|8-----------|

  E3 ( B )     E2 ( A )     E3 ( B )     E4 ( C )
G|------------|------------|------------|--------------|
D|------9-----|-----7------|------9-----|---10-----10--|
A|---9--------|---7---7----|---9--------|-10--10-10--10|
E|7-----------|5-----------|7-----------|8------8------|

  E3 ( B )     E
G|------------|----9-------|
D|------9-----|--9---9-9s14|
A|---9--------|7-----------|
E|7-----------|------------|


 Dudas, preguntas o comentarios escribe a: [email protected]

Fuente original: LaCuerda
Colaborador original: Israel Sánchez Padilla [[email protected]]
Aviso: Este fichero es trabajo propio de su transcriptor y representa su interpretación personal de la canción. El material contenido en esta página es para exclusivo uso privado, por lo que se prohibe su reproducción o retransmisión, así como su uso para fines comerciales.

Califica esta canción


Comentarios en Facebook